  0
SECTION
  2
HEADER
  9
$ACADVER
  1
AC1015
  9
$ACADMAINTVER
 70
     6
  9
$DWGCODEPAGE
  3
ANSI_1252
  9
$INSBASE
 10
0.0
 20
0.0
 30
0.0
  9
$EXTMIN
 10
1.000000000000000E+20
 20
1.000000000000000E+20
 30
1.000000000000000E+20
  9
$EXTMAX
 10
-1.000000000000000E+20
 20
-1.000000000000000E+20
 30
-1.000000000000000E+20
  9
$LIMMIN
 10
0.0
 20
0.0
  9
$LIMMAX
 10
420.0
 20
297.0
  9
$ORTHOMODE
 70
     0
  9
$REGENMODE
 70
     1
  9
$FILLMODE
 70
     1
  9
$QTEXTMODE
 70
     0
  9
$MIRRTEXT
 70
     1
  9
$LTSCALE
 40
1.0
  9
$ATTMODE
 70
     1
  9
$TEXTSIZE
 40
2.5
  9
$TRACEWID
 40
1.0
  9
$TEXTSTYLE
  7
Standard
  9
$CLAYER
  8
0
  9
$CELTYPE
  6
ByLayer
  9
$CECOLOR
 62
   256
  9
$CELTSCALE
 40
1.0
  9
$DISPSILH
 70
     0
  9
$DIMSCALE
 40
1.0
  9
$DIMASZ
 40
3.0
  9
$DIMEXO
 40
0.625
  9
$DIMDLI
 40
3.75
  9
$DIMRND
 40
0.0
  9
$DIMDLE
 40
0.0
  9
$DIMEXE
 40
1.25
  9
$DIMTP
 40
0.0
  9
$DIMTM
 40
0.0
  9
$DIMTXT
 40
1.336918010447422
  9
$DIMCEN
 40
2.5
  9
$DIMTSZ
 40
0.0
  9
$DIMTOL
 70
     0
  9
$DIMLIM
 70
     0
  9
$DIMTIH
 70
     0
  9
$DIMTOH
 70
     0
  9
$DIMSE1
 70
     0
  9
$DIMSE2
 70
     0
  9
$DIMTAD
 70
     1
  9
$DIMZIN
 70
     8
  9
$DIMBLK
  1

  9
$DIMASO
 70
     1
  9
$DIMSHO
 70
     1
  9
$DIMPOST
  1

  9
$DIMAPOST
  1

  9
$DIMALT
 70
     0
  9
$DIMALTD
 70
     3
  9
$DIMALTF
 40
0.03937007874016
  9
$DIMLFAC
 40
1.0
  9
$DIMTOFL
 70
     1
  9
$DIMTVP
 40
0.0
  9
$DIMTIX
 70
     0
  9
$DIMSOXD
 70
     0
  9
$DIMSAH
 70
     0
  9
$DIMBLK1
  1

  9
$DIMBLK2
  1

  9
$DIMSTYLE
  2
ISO-25
  9
$DIMCLRD
 70
     0
  9
$DIMCLRE
 70
     0
  9
$DIMCLRT
 70
     0
  9
$DIMTFAC
 40
1.0
  9
$DIMGAP
 40
0.625
  9
$DIMJUST
 70
     0
  9
$DIMSD1
 70
     0
  9
$DIMSD2
 70
     0
  9
$DIMTOLJ
 70
     0
  9
$DIMTZIN
 70
     8
  9
$DIMALTZ
 70
     0
  9
$DIMALTTZ
 70
     0
  9
$DIMUPT
 70
     0
  9
$DIMDEC
 70
     2
  9
$DIMTDEC
 70
     2
  9
$DIMALTU
 70
     2
  9
$DIMALTTD
 70
     3
  9
$DIMTXSTY
  7
Standard
  9
$DIMAUNIT
 70
     0
  9
$DIMADEC
 70
     0
  9
$DIMALTRND
 40
0.0
  9
$DIMAZIN
 70
     0
  9
$DIMDSEP
 70
    44
  9
$DIMATFIT
 70
     3
  9
$DIMFRAC
 70
     0
  9
$DIMLDRBLK
  1

  9
$DIMLUNIT
 70
     2
  9
$DIMLWD
 70
    -2
  9
$DIMLWE
 70
    -2
  9
$DIMTMOVE
 70
     0
  9
$LUNITS
 70
     2
  9
$LUPREC
 70
     4
  9
$SKETCHINC
 40
1.0
  9
$FILLETRAD
 40
10.0
  9
$AUNITS
 70
     0
  9
$AUPREC
 70
     0
  9
$MENU
  1
.
  9
$ELEVATION
 40
0.0
  9
$PELEVATION
 40
0.0
  9
$THICKNESS
 40
0.0
  9
$LIMCHECK
 70
     0
  9
$CHAMFERA
 40
10.0
  9
$CHAMFERB
 40
10.0
  9
$CHAMFERC
 40
20.0
  9
$CHAMFERD
 40
0.0
  9
$SKPOLY
 70
     0
  9
$TDCREATE
 40
2456552.618867118
  9
$TDUCREATE
 40
2456552.535533785
  9
$TDUPDATE
 40
2456552.618868541
  9
$TDUUPDATE
 40
2456552.535535208
  9
$TDINDWG
 40
0.0000000116
  9
$TDUSRTIMER
 40
0.0000000116
  9
$USRTIMER
 70
     1
  9
$ANGBASE
 50
0.0
  9
$ANGDIR
 70
     0
  9
$PDMODE
 70
     0
  9
$PDSIZE
 40
0.0
  9
$PLINEWID
 40
0.0
  9
$SPLFRAME
 70
     0
  9
$SPLINETYPE
 70
     6
  9
$SPLINESEGS
 70
     8
  9
$HANDSEED
  5
512
  9
$SURFTAB1
 70
     6
  9
$SURFTAB2
 70
     6
  9
$SURFTYPE
 70
     6
  9
$SURFU
 70
     6
  9
$SURFV
 70
     6
  9
$UCSBASE
  2

  9
$UCSNAME
  2

  9
$UCSORG
 10
0.0
 20
0.0
 30
0.0
  9
$UCSXDIR
 10
1.0
 20
0.0
 30
0.0
  9
$UCSYDIR
 10
0.0
 20
1.0
 30
0.0
  9
$UCSORTHOREF
  2

  9
$UCSORTHOVIEW
 70
     0
  9
$UCSORGTOP
 10
0.0
 20
0.0
 30
0.0
  9
$UCSORGBOTTOM
 10
0.0
 20
0.0
 30
0.0
  9
$UCSORGLEFT
 10
0.0
 20
0.0
 30
0.0
  9
$UCSORGRIGHT
 10
0.0
 20
0.0
 30
0.0
  9
$UCSORGFRONT
 10
0.0
 20
0.0
 30
0.0
  9
$UCSORGBACK
 10
0.0
 20
0.0
 30
0.0
  9
$PUCSBASE
  2

  9
$PUCSNAME
  2

  9
$PUCSORG
 10
0.0
 20
0.0
 30
0.0
  9
$PUCSXDIR
 10
1.0
 20
0.0
 30
0.0
  9
$PUCSYDIR
 10
0.0
 20
1.0
 30
0.0
  9
$PUCSORTHOREF
  2

  9
$PUCSORTHOVIEW
 70
     0
  9
$PUCSORGTOP
 10
0.0
 20
0.0
 30
0.0
  9
$PUCSORGBOTTOM
 10
0.0
 20
0.0
 30
0.0
  9
$PUCSORGLEFT
 10
0.0
 20
0.0
 30
0.0
  9
$PUCSORGRIGHT
 10
0.0
 20
0.0
 30
0.0
  9
$PUCSORGFRONT
 10
0.0
 20
0.0
 30
0.0
  9
$PUCSORGBACK
 10
0.0
 20
0.0
 30
0.0
  9
$USERI1
 70
     0
  9
$USERI2
 70
     0
  9
$USERI3
 70
     0
  9
$USERI4
 70
     0
  9
$USERI5
 70
     0
  9
$USERR1
 40
0.0
  9
$USERR2
 40
0.0
  9
$USERR3
 40
0.0
  9
$USERR4
 40
0.0
  9
$USERR5
 40
0.0
  9
$WORLDVIEW
 70
     1
  9
$SHADEDGE
 70
     3
  9
$SHADEDIF
 70
    70
  9
$TILEMODE
 70
     1
  9
$MAXACTVP
 70
    64
  9
$PINSBASE
 10
0.0
 20
0.0
 30
0.0
  9
$PLIMCHECK
 70
     0
  9
$PEXTMIN
 10
1.000000000000000E+20
 20
1.000000000000000E+20
 30
1.000000000000000E+20
  9
$PEXTMAX
 10
-1.000000000000000E+20
 20
-1.000000000000000E+20
 30
-1.000000000000000E+20
  9
$PLIMMIN
 10
0.0
 20
0.0
  9
$PLIMMAX
 10
420.0
 20
297.0
  9
$UNITMODE
 70
     0
  9
$VISRETAIN
 70
     1
  9
$PLINEGEN
 70
     0
  9
$PSLTSCALE
 70
     1
  9
$TREEDEPTH
 70
  3020
  9
$CMLSTYLE
  2
Standard
  9
$CMLJUST
 70
     0
  9
$CMLSCALE
 40
20.0
  9
$PROXYGRAPHICS
 70
     1
  9
$MEASUREMENT
 70
     1
  9
$CELWEIGHT
370
    -1
  9
$ENDCAPS
280
     0
  9
$JOINSTYLE
280
     0
  9
$LWDISPLAY
290
     0
  9
$INSUNITS
 70
     4
  9
$HYPERLINKBASE
  1

  9
$STYLESHEET
  1

  9
$XEDIT
290
     1
  9
$CEPSNTYPE
380
     0
  9
$PSTYLEMODE
290
     1
  9
$FINGERPRINTGUID
  2
{1B17471E-57DC-4AC1-AB4B-DDFE71C33D9F}
  9
$VERSIONGUID
  2
{FAEB1C32-E019-11D5-929B-00C0DF256EC4}
  9
$EXTNAMES
290
     1
  9
$PSVPSCALE
 40
0.0
  9
$OLESTARTUP
290
     0
  0
ENDSEC
  0
SECTION
  2
CLASSES
  0
CLASS
  1
ACDBDICTIONARYWDFLT
  2
AcDbDictionaryWithDefault
  3
ObjectDBX Classes
 90
        0
280
     0
281
     0
  0
CLASS
  1
VISUALSTYLE
  2
AcDbVisualStyle
  3
ObjectDBX Classes
 90
     4095
280
     0
281
     0
  0
CLASS
  1
MATERIAL
  2
AcDbMaterial
  3
ObjectDBX Classes
 90
     1153
280
     0
281
     0
  0
CLASS
  1
DICTIONARYVAR
  2
AcDbDictionaryVar
  3
ObjectDBX Classes
 90
        0
280
     0
281
     0
  0
CLASS
  1
ACDBPLACEHOLDER
  2
AcDbPlaceHolder
  3
ObjectDBX Classes
 90
        0
280
     0
281
     0
  0
CLASS
  1
LAYOUT
  2
AcDbLayout
  3
ObjectDBX Classes
 90
        0
280
     0
281
     0
  0
ENDSEC
  0
SECTION
  2
TABLES
  0
TABLE
  2
VPORT
  5
8
330
0
100
AcDbSymbolTable
 70
     1
  0
VPORT
  5
29
330
8
100
AcDbSymbolTableRecord
100
AcDbViewportTableRecord
  2
*Active
 70
     0
 10
0.0
 20
0.0
 11
1.0
 21
1.0
 12
344.1869158878504
 22
148.5
 13
0.0
 23
0.0
 14
10.0
 24
10.0
 15
10.0
 25
10.0
 16
0.0
 26
0.0
 36
1.0
 17
0.0
 27
0.0
 37
0.0
 40
297.0
 41
1.972972972850329
 42
50.0
 43
0.0
 44
0.0
 50
0.0
 51
0.0
 71
     0
 72
   100
 73
     1
 74
     3
 75
     0
 76
     0
 77
     0
 78
     0
281
     0
 65
     1
110
0.0
120
0.0
130
0.0
111
1.0
121
0.0
131
0.0
112
0.0
122
1.0
132
0.0
 79
     0
146
0.0
  0
ENDTAB
  0
TABLE
  2
LTYPE
  5
5
330
0
100
AcDbSymbolTable
 70
     1
  0
LTYPE
  5
14
330
5
100
AcDbSymbolTableRecord
100
AcDbLinetypeTableRecord
  2
ByBlock
 70
     0
  3

 72
    65
 73
     0
 40
0.0
  0
LTYPE
  5
15
330
5
100
AcDbSymbolTableRecord
100
AcDbLinetypeTableRecord
  2
ByLayer
 70
     0
  3

 72
    65
 73
     0
 40
0.0
  0
LTYPE
  5
16
330
5
100
AcDbSymbolTableRecord
100
AcDbLinetypeTableRecord
  2
Continuous
 70
     0
  3
Solid line
 72
    65
 73
     0
 40
0.0
  0
ENDTAB
  0
TABLE
  2
LAYER
  5
2
330
0
100
AcDbSymbolTable
 70
     3
  0
LAYER
  5
10
330
2
100
AcDbSymbolTableRecord
100
AcDbLayerTableRecord
  2
0
 70
     0
 62
     7
  6
Continuous
370
    -3
390
F
  0
LAYER
  5
3F
330
2
100
AcDbSymbolTableRecord
100
AcDbLayerTableRecord
  2
APPARENT
 70
     0
 62
     7
  6
Continuous
370
     0
390
F
  0
LAYER
  5
489
330
2
100
AcDbSymbolTableRecord
100
AcDbLayerTableRecord
  2
ARETES TANGENTES
 70
     0
 62
     7
  6
Continuous
370
     0
390
F
  0
ENDTAB
  0
TABLE
  2
STYLE
  5
3
330
0
100
AcDbSymbolTable
 70
     1
  0
STYLE
  5
11
330
3
100
AcDbSymbolTableRecord
100
AcDbTextStyleTableRecord
  2
Standard
 70
     0
 40
0.0
 41
1.0
 50
0.0
 71
     0
 42
2.5
  3
txt
  4

  0
ENDTAB
  0
TABLE
  2
VIEW
  5
6
330
0
100
AcDbSymbolTable
 70
     0
  0
ENDTAB
  0
TABLE
  2
UCS
  5
7
330
0
100
AcDbSymbolTable
 70
     0
  0
ENDTAB
  0
TABLE
  2
APPID
  5
9
330
0
100
AcDbSymbolTable
 70
     1
  0
APPID
  5
12
330
9
100
AcDbSymbolTableRecord
100
AcDbRegAppTableRecord
  2
ACAD
 70
     0
  0
ENDTAB
  0
TABLE
  2
DIMSTYLE
  5
A
330
0
100
AcDbSymbolTable
 70
     1
100
AcDbDimStyleTable
  0
DIMSTYLE
105
27
330
A
100
AcDbSymbolTableRecord
100
AcDbDimStyleTableRecord
  2
ISO-25
 70
     0
 41
2.5
 42
0.625
 43
3.75
 44
1.25
 73
     0
 74
     0
 77
     1
 78
     8
140
2.5
141
2.5
143
0.03937007874016
147
0.625
171
     3
172
     1
178
     0
271
     2
272
     2
274
     3
278
    44
283
     0
284
     8
340
11
  0
ENDTAB
  0
TABLE
  2
BLOCK_RECORD
  5
1
330
0
100
AcDbSymbolTable
 70
     1
  0
BLOCK_RECORD
  5
1F
330
1
100
AcDbSymbolTableRecord
100
AcDbBlockTableRecord
  2
*Model_Space
340
22
  0
BLOCK_RECORD
  5
1B
330
1
100
AcDbSymbolTableRecord
100
AcDbBlockTableRecord
  2
*Paper_Space
340
1E
  0
BLOCK_RECORD
  5
23
330
1
100
AcDbSymbolTableRecord
100
AcDbBlockTableRecord
  2
*Paper_Space0
340
26
  0
ENDTAB
  0
ENDSEC
  0
SECTION
  2
BLOCKS
  0
BLOCK
  5
20
330
1F
100
AcDbEntity
  8
0
100
AcDbBlockBegin
  2
*Model_Space
 70
     0
 10
0.0
 20
0.0
 30
0.0
  3
*Model_Space
  1

  0
ENDBLK
  5
21
330
1F
100
AcDbEntity
  8
0
100
AcDbBlockEnd
  0
BLOCK
  5
1C
330
1B
100
AcDbEntity
 67
     1
  8
0
100
AcDbBlockBegin
  2
*Paper_Space
 70
     0
 10
0.0
 20
0.0
 30
0.0
  3
*Paper_Space
  1

  0
ENDBLK
  5
1D
330
1B
100
AcDbEntity
 67
     1
  8
0
100
AcDbBlockEnd
  0
BLOCK
  5
24
330
23
100
AcDbEntity
  8
0
100
AcDbBlockBegin
  2
*Paper_Space0
 70
     0
 10
0.0
 20
0.0
 30
0.0
  3
*Paper_Space0
  1

  0
ENDBLK
  5
25
330
23
100
AcDbEntity
  8
0
100
AcDbBlockEnd
  0
ENDSEC
  0
SECTION
  2
ENTITIES
  0
LINE
  5
40
330
1F
100
AcDbEntity
  8
APPARENT
100
AcDbLine
 10
244.3149536516063
 20
232.0409442138676
 30
0.0
 11
244.3149536516063
 21
217.8409442138675
 31
0.0
  0
ARC
  5
41
330
1F
100
AcDbEntity
  8
APPARENT
100
AcDbCircle
 10
335.8094787597656
 20
211.6709442138673
 30
0.0
 40
0.5
100
AcDbArc
 50
270.0
 51
359.9999999999935
  0
ARC
  5
42
330
1F
100
AcDbEntity
  8
APPARENT
100
AcDbCircle
 10
229.3094787597657
 20
250.6709442138671
 30
0.0
 40
0.5
100
AcDbArc
 50
90.00000000003583
 51
180.0
  0
LINE
  5
43
330
1F
100
AcDbEntity
  8
APPARENT
100
AcDbLine
 10
293.4099537050043
 20
229.5409442138673
 30
0.0
 11
293.4099537050043
 21
218.5409442138673
 31
0.0
  0
LINE
  5
44
330
1F
100
AcDbEntity
  8
APPARENT
100
AcDbLine
 10
293.4099537050043
 20
218.5409442138673
 30
0.0
 11
319.4099537050042
 21
218.5409442138673
 31
0.0
  0
ARC
  5
45
330
1F
100
AcDbEntity
  8
APPARENT
100
AcDbCircle
 10
335.8094787597657
 20
250.6709442138668
 30
0.0
 40
0.5
100
AcDbArc
 50
0.0000000000553671
 51
90.0
  0
LINE
  5
46
330
1F
100
AcDbEntity
  8
APPARENT
100
AcDbLine
 10
228.8094787597656
 20
211.6709442138676
 30
0.0
 11
228.8094787597657
 21
250.6709442138671
 31
0.0
  0
LINE
  5
47
330
1F
100
AcDbEntity
  8
APPARENT
100
AcDbLine
 10
261.2149536516063
 20
232.0409442138675
 30
0.0
 11
244.3149536516063
 21
232.0409442138676
 31
0.0
  0
LINE
  5
48
330
1F
100
AcDbEntity
  8
APPARENT
100
AcDbLine
 10
319.4099537050042
 20
218.5409442138673
 30
0.0
 11
319.4099537050042
 21
229.5409442138673
 31
0.0
  0
CIRCLE
  5
49
330
1F
100
AcDbEntity
  8
APPARENT
100
AcDbCircle
 10
285.4099536516059
 20
226.4909442138663
 30
0.0
 40
6.5
  0
LINE
  5
4A
330
1F
100
AcDbEntity
  8
APPARENT
100
AcDbLine
 10
336.3094787597657
 20
250.6709442138673
 30
0.0
 11
336.3094787597656
 21
211.6709442138672
 31
0.0
  0
LINE
  5
4B
330
1F
100
AcDbEntity
  8
APPARENT
100
AcDbLine
 10
229.3094787597654
 20
251.1709442138671
 30
0.0
 11
335.8094787597657
 21
251.1709442138668
 31
0.0
  0
LINE
  5
4C
330
1F
100
AcDbEntity
  8
APPARENT
100
AcDbLine
 10
244.3149536516063
 20
217.8409442138675
 30
0.0
 11
245.2349536516062
 21
217.8409442138675
 31
0.0
  0
LINE
  5
4D
330
1F
100
AcDbEntity
  8
APPARENT
100
AcDbLine
 10
260.5149536516063
 20
217.8409442138675
 30
0.0
 11
261.2149536516063
 21
217.8409442138675
 31
0.0
  0
LINE
  5
4E
330
1F
100
AcDbEntity
  8
APPARENT
100
AcDbLine
 10
319.4099537050042
 20
229.5409442138673
 30
0.0
 11
293.4099537050043
 21
229.5409442138673
 31
0.0
  0
ARC
  5
4F
330
1F
100
AcDbEntity
  8
APPARENT
100
AcDbCircle
 10
229.3094787597656
 20
211.6709442138676
 30
0.0
 40
0.5
100
AcDbArc
 50
180.0
 51
270.0
  0
LINE
  5
50
330
1F
100
AcDbEntity
  8
APPARENT
100
AcDbLine
 10
335.8094787597656
 20
211.1709442138673
 30
0.0
 11
229.3094787597656
 21
211.1709442138676
 31
0.0
  0
LINE
  5
51
330
1F
100
AcDbEntity
  8
APPARENT
100
AcDbLine
 10
261.2149536516063
 20
217.8409442138675
 30
0.0
 11
261.2149536516063
 21
232.0409442138675
 31
0.0
  0
CIRCLE
  5
52
330
1F
100
AcDbEntity
  8
APPARENT
100
AcDbCircle
 10
269.8899536516062
 20
226.4909442138663
 30
0.0
 40
6.5
  0
LINE
  5
53
330
1F
100
AcDbEntity
  8
APPARENT
100
AcDbLine
 10
239.4706138233857
 20
223.6976043856471
 30
0.0
 11
238.8952766261323
 21
223.0119442138673
 31
0.0
  0
LINE
  5
54
330
1F
100
AcDbEntity
  8
APPARENT
100
AcDbLine
 10
238.0349536516059
 20
223.1222671883937
 30
0.0
 11
238.0349536516059
 21
223.0119442138673
 31
0.0
  0
LINE
  5
55
330
1F
100
AcDbEntity
  8
APPARENT
100
AcDbLine
 10
237.9246306770794
 20
222.2619442138673
 30
0.0
 11
238.0349536516059
 21
222.2619442138673
 31
0.0
  0
LINE
  5
56
330
1F
100
AcDbEntity
  8
APPARENT
100
AcDbLine
 10
239.4706138233857
 20
221.5762840420875
 30
0.0
 11
238.7849536516059
 21
222.1516212393409
 31
0.0
  0
LINE
  5
57
330
1F
100
AcDbEntity
  8
APPARENT
100
AcDbLine
 10
237.9246306770794
 20
223.0119442138673
 30
0.0
 11
237.349293479826
 21
223.6976043856471
 31
0.0
  0
LINE
  5
58
330
1F
100
AcDbEntity
  8
APPARENT
100
AcDbLine
 10
238.0349536516059
 20
222.1516212393409
 30
0.0
 11
237.349293479826
 21
221.5762840420875
 31
0.0
  0
LINE
  5
59
330
1F
100
AcDbEntity
  8
APPARENT
100
AcDbLine
 10
238.7849536516059
 20
221.1369442138673
 30
0.0
 11
238.0349536516059
 21
221.1369442138673
 31
0.0
  0
LINE
  5
5A
330
1F
100
AcDbEntity
  8
APPARENT
100
AcDbLine
 10
238.7849536516059
 20
222.2619442138673
 30
0.0
 11
238.7849536516059
 21
223.0119442138673
 31
0.0
  0
LINE
  5
5B
330
1F
100
AcDbEntity
  8
APPARENT
100
AcDbLine
 10
238.7849536516059
 20
223.0119442138673
 30
0.0
 11
238.7849536516059
 21
223.1222671883937
 31
0.0
  0
LINE
  5
5C
330
1F
100
AcDbEntity
  8
APPARENT
100
AcDbLine
 10
238.8952766261323
 20
222.2619442138673
 30
0.0
 11
239.4706138233857
 21
221.5762840420875
 31
0.0
  0
LINE
  5
5D
330
1F
100
AcDbEntity
  8
APPARENT
100
AcDbLine
 10
238.8952766261323
 20
223.0119442138673
 30
0.0
 11
239.9099536516059
 21
223.0119442138673
 31
0.0
  0
LINE
  5
5E
330
1F
100
AcDbEntity
  8
APPARENT
100
AcDbLine
 10
238.7849536516059
 20
222.1516212393409
 30
0.0
 11
238.7849536516059
 21
222.2619442138673
 31
0.0
  0
LINE
  5
5F
330
1F
100
AcDbEntity
  8
APPARENT
100
AcDbLine
 10
236.9099536516059
 20
223.0119442138673
 30
0.0
 11
237.9246306770794
 21
223.0119442138673
 31
0.0
  0
LINE
  5
60
330
1F
100
AcDbEntity
  8
APPARENT
100
AcDbLine
 10
238.0349536516059
 20
223.0119442138673
 30
0.0
 11
238.0349536516059
 21
222.2619442138673
 31
0.0
  0
LINE
  5
61
330
1F
100
AcDbEntity
  8
APPARENT
100
AcDbLine
 10
239.9099536516059
 20
223.0119442138673
 30
0.0
 11
239.9099536516059
 21
222.6369442138673
 31
0.0
  0
LINE
  5
62
330
1F
100
AcDbEntity
  8
APPARENT
100
AcDbLine
 10
238.0349536516059
 20
224.1369442138673
 30
0.0
 11
238.7849536516059
 21
224.1369442138673
 31
0.0
  0
LINE
  5
63
330
1F
100
AcDbEntity
  8
APPARENT
100
AcDbLine
 10
238.7849536516059
 20
223.0119442138673
 30
0.0
 11
238.0349536516059
 21
223.0119442138673
 31
0.0
  0
LINE
  5
64
330
1F
100
AcDbEntity
  8
APPARENT
100
AcDbLine
 10
237.349293479826
 20
221.5762840420875
 30
0.0
 11
237.9246306770794
 21
222.2619442138673
 31
0.0
  0
LINE
  5
65
330
1F
100
AcDbEntity
  8
APPARENT
100
AcDbLine
 10
236.9099536516059
 20
222.2619442138673
 30
0.0
 11
236.9099536516059
 21
222.6369442138673
 31
0.0
  0
LINE
  5
66
330
1F
100
AcDbEntity
  8
APPARENT
100
AcDbLine
 10
238.0349536516059
 20
223.0119442138673
 30
0.0
 11
237.9246306770794
 21
223.0119442138673
 31
0.0
  0
LINE
  5
67
330
1F
100
AcDbEntity
  8
APPARENT
100
AcDbLine
 10
238.7849536516059
 20
222.1516212393409
 30
0.0
 11
238.7849536516059
 21
221.1369442138673
 31
0.0
  0
LINE
  5
68
330
1F
100
AcDbEntity
  8
APPARENT
100
AcDbLine
 10
238.7849536516059
 20
222.2619442138673
 30
0.0
 11
238.8952766261323
 21
222.2619442138673
 31
0.0
  0
LINE
  5
69
330
1F
100
AcDbEntity
  8
APPARENT
100
AcDbLine
 10
238.0349536516059
 20
221.1369442138673
 30
0.0
 11
238.0349536516059
 21
222.1516212393409
 31
0.0
  0
LINE
  5
6A
330
1F
100
AcDbEntity
  8
APPARENT
100
AcDbLine
 10
237.349293479826
 20
223.6976043856471
 30
0.0
 11
238.0349536516059
 21
223.1222671883937
 31
0.0
  0
LINE
  5
6B
330
1F
100
AcDbEntity
  8
APPARENT
100
AcDbLine
 10
236.9099536516059
 20
222.6369442138673
 30
0.0
 11
236.9099536516059
 21
223.0119442138673
 31
0.0
  0
LINE
  5
6C
330
1F
100
AcDbEntity
  8
APPARENT
100
AcDbLine
 10
238.7849536516059
 20
224.1369442138673
 30
0.0
 11
238.7849536516059
 21
223.1222671883937
 31
0.0
  0
ARC
  5
6D
330
1F
100
AcDbEntity
  8
APPARENT
100
AcDbCircle
 10
238.4099536516059
 20
222.6369442138673
 30
0.0
 40
2.656897464032113
100
AcDbArc
 50
180.0
 51
0.0
  0
LINE
  5
6E
330
1F
100
AcDbEntity
  8
APPARENT
100
AcDbLine
 10
238.0349536516059
 20
222.2619442138673
 30
0.0
 11
238.0349536516059
 21
222.1516212393409
 31
0.0
  0
LINE
  5
6F
330
1F
100
AcDbEntity
  8
APPARENT
100
AcDbLine
 10
238.0349536516059
 20
223.1222671883937
 30
0.0
 11
238.0349536516059
 21
224.1369442138673
 31
0.0
  0
LINE
  5
70
330
1F
100
AcDbEntity
  8
APPARENT
100
AcDbLine
 10
237.9246306770794
 20
222.2619442138673
 30
0.0
 11
236.9099536516059
 21
222.2619442138673
 31
0.0
  0
ARC
  5
71
330
1F
100
AcDbEntity
  8
APPARENT
100
AcDbCircle
 10
238.4099536516059
 20
222.6369442138673
 30
0.0
 40
2.656897464032113
100
AcDbArc
 50
0.0
 51
180.0
  0
LINE
  5
72
330
1F
100
AcDbEntity
  8
APPARENT
100
AcDbLine
 10
238.7849536516059
 20
223.1222671883937
 30
0.0
 11
239.4706138233857
 21
223.6976043856471
 31
0.0
  0
LINE
  5
73
330
1F
100
AcDbEntity
  8
APPARENT
100
AcDbLine
 10
239.9099536516059
 20
222.6369442138673
 30
0.0
 11
239.9099536516059
 21
222.2619442138673
 31
0.0
  0
LINE
  5
74
330
1F
100
AcDbEntity
  8
APPARENT
100
AcDbLine
 10
239.9099536516059
 20
222.2619442138673
 30
0.0
 11
238.8952766261323
 21
222.2619442138673
 31
0.0
  0
LINE
  5
75
330
1F
100
AcDbEntity
  8
APPARENT
100
AcDbLine
 10
238.7849536516059
 20
222.2619442138673
 30
0.0
 11
238.0349536516059
 21
222.2619442138673
 31
0.0
  0
LINE
  5
76
330
1F
100
AcDbEntity
  8
APPARENT
100
AcDbLine
 10
238.8952766261323
 20
223.0119442138673
 30
0.0
 11
238.7849536516059
 21
223.0119442138673
 31
0.0
  0
LINE
  5
77
330
1F
100
AcDbEntity
  8
APPARENT
100
AcDbLine
 10
327.8706138233855
 20
223.6976043856471
 30
0.0
 11
327.2952766261321
 21
223.0119442138673
 31
0.0
  0
LINE
  5
78
330
1F
100
AcDbEntity
  8
APPARENT
100
AcDbLine
 10
326.4349536516057
 20
223.1222671883937
 30
0.0
 11
326.4349536516057
 21
223.0119442138673
 31
0.0
  0
LINE
  5
79
330
1F
100
AcDbEntity
  8
APPARENT
100
AcDbLine
 10
326.3246306770793
 20
222.2619442138673
 30
0.0
 11
326.4349536516057
 21
222.2619442138673
 31
0.0
  0
LINE
  5
7A
330
1F
100
AcDbEntity
  8
APPARENT
100
AcDbLine
 10
327.8706138233855
 20
221.5762840420875
 30
0.0
 11
327.1849536516057
 21
222.1516212393409
 31
0.0
  0
LINE
  5
7B
330
1F
100
AcDbEntity
  8
APPARENT
100
AcDbLine
 10
326.3246306770793
 20
223.0119442138673
 30
0.0
 11
325.7492934798258
 21
223.6976043856471
 31
0.0
  0
LINE
  5
7C
330
1F
100
AcDbEntity
  8
APPARENT
100
AcDbLine
 10
326.4349536516057
 20
222.1516212393409
 30
0.0
 11
325.7492934798258
 21
221.5762840420875
 31
0.0
  0
LINE
  5
7D
330
1F
100
AcDbEntity
  8
APPARENT
100
AcDbLine
 10
327.1849536516057
 20
221.1369442138673
 30
0.0
 11
326.4349536516057
 21
221.1369442138673
 31
0.0
  0
LINE
  5
7E
330
1F
100
AcDbEntity
  8
APPARENT
100
AcDbLine
 10
327.1849536516057
 20
222.2619442138673
 30
0.0
 11
327.1849536516057
 21
223.0119442138673
 31
0.0
  0
LINE
  5
7F
330
1F
100
AcDbEntity
  8
APPARENT
100
AcDbLine
 10
327.1849536516057
 20
223.0119442138673
 30
0.0
 11
327.1849536516057
 21
223.1222671883937
 31
0.0
  0
LINE
  5
80
330
1F
100
AcDbEntity
  8
APPARENT
100
AcDbLine
 10
327.2952766261321
 20
222.2619442138673
 30
0.0
 11
327.8706138233855
 21
221.5762840420875
 31
0.0
  0
LINE
  5
81
330
1F
100
AcDbEntity
  8
APPARENT
100
AcDbLine
 10
327.2952766261321
 20
223.0119442138673
 30
0.0
 11
328.3099536516057
 21
223.0119442138673
 31
0.0
  0
LINE
  5
82
330
1F
100
AcDbEntity
  8
APPARENT
100
AcDbLine
 10
327.1849536516057
 20
222.1516212393409
 30
0.0
 11
327.1849536516057
 21
222.2619442138673
 31
0.0
  0
LINE
  5
83
330
1F
100
AcDbEntity
  8
APPARENT
100
AcDbLine
 10
325.3099536516057
 20
223.0119442138673
 30
0.0
 11
326.3246306770793
 21
223.0119442138673
 31
0.0
  0
LINE
  5
84
330
1F
100
AcDbEntity
  8
APPARENT
100
AcDbLine
 10
326.4349536516057
 20
223.0119442138673
 30
0.0
 11
326.4349536516057
 21
222.2619442138673
 31
0.0
  0
LINE
  5
85
330
1F
100
AcDbEntity
  8
APPARENT
100
AcDbLine
 10
328.3099536516057
 20
223.0119442138673
 30
0.0
 11
328.3099536516057
 21
222.6369442138673
 31
0.0
  0
LINE
  5
86
330
1F
100
AcDbEntity
  8
APPARENT
100
AcDbLine
 10
326.4349536516057
 20
224.1369442138673
 30
0.0
 11
327.1849536516057
 21
224.1369442138673
 31
0.0
  0
LINE
  5
87
330
1F
100
AcDbEntity
  8
APPARENT
100
AcDbLine
 10
327.1849536516057
 20
223.0119442138673
 30
0.0
 11
326.4349536516057
 21
223.0119442138673
 31
0.0
  0
LINE
  5
88
330
1F
100
AcDbEntity
  8
APPARENT
100
AcDbLine
 10
325.7492934798258
 20
221.5762840420875
 30
0.0
 11
326.3246306770793
 21
222.2619442138673
 31
0.0
  0
LINE
  5
89
330
1F
100
AcDbEntity
  8
APPARENT
100
AcDbLine
 10
325.3099536516057
 20
222.2619442138673
 30
0.0
 11
325.3099536516057
 21
222.6369442138673
 31
0.0
  0
LINE
  5
8A
330
1F
100
AcDbEntity
  8
APPARENT
100
AcDbLine
 10
326.4349536516057
 20
223.0119442138673
 30
0.0
 11
326.3246306770793
 21
223.0119442138673
 31
0.0
  0
LINE
  5
8B
330
1F
100
AcDbEntity
  8
APPARENT
100
AcDbLine
 10
327.1849536516057
 20
222.1516212393409
 30
0.0
 11
327.1849536516057
 21
221.1369442138673
 31
0.0
  0
LINE
  5
8C
330
1F
100
AcDbEntity
  8
APPARENT
100
AcDbLine
 10
327.1849536516057
 20
222.2619442138673
 30
0.0
 11
327.2952766261321
 21
222.2619442138673
 31
0.0
  0
LINE
  5
8D
330
1F
100
AcDbEntity
  8
APPARENT
100
AcDbLine
 10
326.4349536516057
 20
221.1369442138673
 30
0.0
 11
326.4349536516057
 21
222.1516212393409
 31
0.0
  0
LINE
  5
8E
330
1F
100
AcDbEntity
  8
APPARENT
100
AcDbLine
 10
325.7492934798258
 20
223.6976043856471
 30
0.0
 11
326.4349536516057
 21
223.1222671883937
 31
0.0
  0
LINE
  5
8F
330
1F
100
AcDbEntity
  8
APPARENT
100
AcDbLine
 10
325.3099536516057
 20
222.6369442138673
 30
0.0
 11
325.3099536516057
 21
223.0119442138673
 31
0.0
  0
LINE
  5
90
330
1F
100
AcDbEntity
  8
APPARENT
100
AcDbLine
 10
327.1849536516057
 20
224.1369442138673
 30
0.0
 11
327.1849536516057
 21
223.1222671883937
 31
0.0
  0
ARC
  5
91
330
1F
100
AcDbEntity
  8
APPARENT
100
AcDbCircle
 10
326.8099536516057
 20
222.6369442138673
 30
0.0
 40
2.656897464032113
100
AcDbArc
 50
180.0
 51
0.0
  0
LINE
  5
92
330
1F
100
AcDbEntity
  8
APPARENT
100
AcDbLine
 10
326.4349536516057
 20
222.2619442138673
 30
0.0
 11
326.4349536516057
 21
222.1516212393409
 31
0.0
  0
LINE
  5
93
330
1F
100
AcDbEntity
  8
APPARENT
100
AcDbLine
 10
326.4349536516057
 20
223.1222671883937
 30
0.0
 11
326.4349536516057
 21
224.1369442138673
 31
0.0
  0
LINE
  5
94
330
1F
100
AcDbEntity
  8
APPARENT
100
AcDbLine
 10
326.3246306770793
 20
222.2619442138673
 30
0.0
 11
325.3099536516057
 21
222.2619442138673
 31
0.0
  0
ARC
  5
95
330
1F
100
AcDbEntity
  8
APPARENT
100
AcDbCircle
 10
326.8099536516057
 20
222.6369442138673
 30
0.0
 40
2.656897464032113
100
AcDbArc
 50
0.0
 51
180.0
  0
LINE
  5
96
330
1F
100
AcDbEntity
  8
APPARENT
100
AcDbLine
 10
327.1849536516057
 20
223.1222671883937
 30
0.0
 11
327.8706138233855
 21
223.6976043856471
 31
0.0
  0
LINE
  5
97
330
1F
100
AcDbEntity
  8
APPARENT
100
AcDbLine
 10
328.3099536516057
 20
222.6369442138673
 30
0.0
 11
328.3099536516057
 21
222.2619442138673
 31
0.0
  0
LINE
  5
98
330
1F
100
AcDbEntity
  8
APPARENT
100
AcDbLine
 10
328.3099536516057
 20
222.2619442138673
 30
0.0
 11
327.2952766261321
 21
222.2619442138673
 31
0.0
  0
LINE
  5
99
330
1F
100
AcDbEntity
  8
APPARENT
100
AcDbLine
 10
327.1849536516057
 20
222.2619442138673
 30
0.0
 11
326.4349536516057
 21
222.2619442138673
 31
0.0
  0
LINE
  5
9A
330
1F
100
AcDbEntity
  8
APPARENT
100
AcDbLine
 10
327.2952766261321
 20
223.0119442138673
 30
0.0
 11
327.1849536516057
 21
223.0119442138673
 31
0.0
  0
LINE
  5
9B
330
1F
100
AcDbEntity
  8
APPARENT
100
AcDbLine
 10
331.2088908581838
 20
246.9284271055935
 30
0.0
 11
329.5862034118452
 21
246.255535515913
 31
0.0
  0
LINE
  5
9C
330
1F
100
AcDbEntity
  8
APPARENT
100
AcDbLine
 10
331.8355547208093
 20
246.5934962969061
 30
0.0
 11
331.2467575081496
 21
246.8371111514683
 31
0.0
  0
LINE
  5
9D
330
1F
100
AcDbEntity
  8
APPARENT
100
AcDbLine
 10
329.4948874577201
 20
246.2176688659471
 30
0.0
 11
327.8722000113815
 21
245.5447772762666
 31
0.0
  0
LINE
  5
9E
330
1F
100
AcDbEntity
  8
APPARENT
100
AcDbLine
 10
331.4525057127461
 20
247.5172243182531
 30
0.0
 11
331.8355547208093
 21
246.5934962969061
 31
0.0
  0
LINE
  5
9F
330
1F
100
AcDbEntity
  8
APPARENT
100
AcDbLine
 10
328.2331986553799
 20
248.083971166848
 30
0.0
 11
328.8219958680396
 21
247.8403563122857
 31
0.0
  0
LINE
  5
A0
330
1F
100
AcDbEntity
  8
APPARENT
100
AcDbLine
 10
329.5862034118452
 20
246.255535515913
 30
0.0
 11
328.9133118221647
 21
247.8782229622516
 31
0.0
  0
LINE
  5
A1
330
1F
100
AcDbEntity
  8
APPARENT
100
AcDbLine
 10
328.2331986553799
 20
248.083971166848
 30
0.0
 11
329.156926676727
 21
248.4670201749112
 31
0.0
  0
LINE
  5
A2
330
1F
100
AcDbEntity
  8
APPARENT
100
AcDbLine
 10
327.6664518067851
 20
244.8646641094818
 30
0.0
 11
327.2834027987218
 21
245.7883921308289
 31
0.0
  0
LINE
  5
A3
330
1F
100
AcDbEntity
  8
APPARENT
100
AcDbLine
 10
331.2467575081496
 20
246.8371111514683
 30
0.0
 11
331.2088908581838
 21
246.9284271055935
 31
0.0
  0
LINE
  5
A4
330
1F
100
AcDbEntity
  8
APPARENT
100
AcDbLine
 10
328.9060902450604
 20
246.4612837205094
 30
0.0
 11
329.4948874577201
 21
246.2176688659471
 31
0.0
  0
LINE
  5
A5
330
1F
100
AcDbEntity
  8
APPARENT
100
AcDbLine
 10
330.2056456973664
 20
244.5036654654834
 30
0.0
 11
330.2969616514916
 21
244.5415321154492
 31
0.0
  0
LINE
  5
A6
330
1F
100
AcDbEntity
  8
APPARENT
100
AcDbLine
 10
328.8219958680396
 20
247.8403563122857
 30
0.0
 11
329.4948874577201
 21
246.2176688659471
 31
0.0
  0
LINE
  5
A7
330
1F
100
AcDbEntity
  8
APPARENT
100
AcDbLine
 10
330.2128672744707
 20
245.9206047072256
 30
0.0
 11
330.8857588641512
 21
244.2979172608869
 31
0.0
  0
LINE
  5
A8
330
1F
100
AcDbEntity
  8
APPARENT
100
AcDbLine
 10
329.9620308428042
 20
243.9148682528237
 30
0.0
 11
330.2056456973664
 21
244.5036654654834
 31
0.0
  0
LINE
  5
A9
330
1F
100
AcDbEntity
  8
APPARENT
100
AcDbLine
 10
327.9100666613473
 20
245.4534613221415
 30
0.0
 11
329.5327541076859
 21
246.126352911822
 31
0.0
  0
LINE
  5
AA
330
1F
100
AcDbEntity
  8
APPARENT
100
AcDbLine
 10
330.2969616514916
 20
244.5415321154492
 30
0.0
 11
329.624070061811
 21
246.1642195617878
 31
0.0
  0
LINE
  5
AB
330
1F
100
AcDbEntity
  8
APPARENT
100
AcDbLine
 10
329.5327541076859
 20
246.126352911822
 30
0.0
 11
330.2056456973664
 21
244.5036654654834
 31
0.0
  0
LINE
  5
AC
330
1F
100
AcDbEntity
  8
APPARENT
100
AcDbLine
 10
330.8857588641512
 20
244.2979172608869
 30
0.0
 11
330.2969616514916
 21
244.5415321154492
 31
0.0
  0
LINE
  5
AD
330
1F
100
AcDbEntity
  8
APPARENT
100
AcDbLine
 10
329.2891392531237
 20
245.5375556991623
 30
0.0
 11
329.5327541076859
 21
246.126352911822
 31
0.0
  0
LINE
  5
AE
330
1F
100
AcDbEntity
  8
APPARENT
100
AcDbLine
 10
329.2891392531237
 20
245.5375556991623
 30
0.0
 11
327.6664518067851
 21
244.8646641094818
 31
0.0
  0
CIRCLE
  5
AF
330
1F
100
AcDbEntity
  8
APPARENT
100
AcDbCircle
 10
329.5594787597656
 20
246.1909442138675
 30
0.0
 40
3.0
  0
LINE
  5
B0
330
1F
100
AcDbEntity
  8
APPARENT
100
AcDbLine
 10
327.6664518067851
 20
244.8646641094818
 30
0.0
 11
327.9100666613473
 21
245.4534613221415
 31
0.0
  0
LINE
  5
B1
330
1F
100
AcDbEntity
  8
APPARENT
100
AcDbLine
 10
329.156926676727
 20
248.4670201749112
 30
0.0
 11
329.8298182664075
 21
246.8443327285726
 31
0.0
  0
LINE
  5
B2
330
1F
100
AcDbEntity
  8
APPARENT
100
AcDbLine
 10
329.624070061811
 20
246.1642195617878
 30
0.0
 11
331.2467575081496
 21
246.8371111514683
 31
0.0
  0
LINE
  5
B3
330
1F
100
AcDbEntity
  8
APPARENT
100
AcDbLine
 10
329.8298182664075
 20
246.8443327285726
 30
0.0
 11
329.5862034118452
 21
246.255535515913
 31
0.0
  0
CIRCLE
  5
B4
330
1F
100
AcDbEntity
  8
APPARENT
100
AcDbCircle
 10
329.5594787597656
 20
246.1909442138675
 30
0.0
 40
2.5
  0
LINE
  5
B5
330
1F
100
AcDbEntity
  8
APPARENT
100
AcDbLine
 10
330.2128672744707
 20
245.9206047072256
 30
0.0
 11
329.624070061811
 21
246.1642195617878
 31
0.0
  0
LINE
  5
B6
330
1F
100
AcDbEntity
  8
APPARENT
100
AcDbLine
 10
329.8298182664075
 20
246.8443327285726
 30
0.0
 11
331.4525057127461
 21
247.5172243182531
 31
0.0
  0
LINE
  5
B7
330
1F
100
AcDbEntity
  8
APPARENT
100
AcDbLine
 10
327.2834027987218
 20
245.7883921308289
 30
0.0
 11
327.8722000113815
 21
245.5447772762666
 31
0.0
  0
LINE
  5
B8
330
1F
100
AcDbEntity
  8
APPARENT
100
AcDbLine
 10
329.9620308428042
 20
243.9148682528237
 30
0.0
 11
329.2891392531237
 21
245.5375556991623
 31
0.0
  0
LINE
  5
B9
330
1F
100
AcDbEntity
  8
APPARENT
100
AcDbLine
 10
331.4525057127461
 20
247.5172243182531
 30
0.0
 11
331.2088908581838
 21
246.9284271055935
 31
0.0
  0
LINE
  5
BA
330
1F
100
AcDbEntity
  8
APPARENT
100
AcDbLine
 10
328.9133118221647
 20
247.8782229622516
 30
0.0
 11
328.8219958680396
 21
247.8403563122857
 31
0.0
  0
LINE
  5
BB
330
1F
100
AcDbEntity
  8
APPARENT
100
AcDbLine
 10
329.156926676727
 20
248.4670201749112
 30
0.0
 11
328.9133118221647
 21
247.8782229622516
 31
0.0
  0
LINE
  5
BC
330
1F
100
AcDbEntity
  8
APPARENT
100
AcDbLine
 10
328.9060902450604
 20
246.4612837205094
 30
0.0
 11
328.2331986553799
 21
248.083971166848
 31
0.0
  0
LINE
  5
BD
330
1F
100
AcDbEntity
  8
APPARENT
100
AcDbLine
 10
331.8355547208093
 20
246.5934962969061
 30
0.0
 11
330.2128672744707
 21
245.9206047072256
 31
0.0
  0
LINE
  5
BE
330
1F
100
AcDbEntity
  8
APPARENT
100
AcDbLine
 10
327.2834027987218
 20
245.7883921308289
 30
0.0
 11
328.9060902450604
 21
246.4612837205094
 31
0.0
  0
LINE
  5
BF
330
1F
100
AcDbEntity
  8
APPARENT
100
AcDbLine
 10
330.8857588641512
 20
244.2979172608869
 30
0.0
 11
329.9620308428042
 21
243.9148682528237
 31
0.0
  0
LINE
  5
C0
330
1F
100
AcDbEntity
  8
APPARENT
100
AcDbLine
 10
327.8722000113815
 20
245.5447772762666
 30
0.0
 11
327.9100666613473
 21
245.4534613221415
 31
0.0
  0
LINE
  5
C1
330
1F
100
AcDbEntity
  8
APPARENT
100
AcDbLine
 10
237.2088908581838
 20
246.9284271055935
 30
0.0
 11
235.5862034118452
 21
246.255535515913
 31
0.0
  0
LINE
  5
C2
330
1F
100
AcDbEntity
  8
APPARENT
100
AcDbLine
 10
237.8355547208093
 20
246.5934962969061
 30
0.0
 11
237.2467575081496
 21
246.8371111514683
 31
0.0
  0
LINE
  5
C3
330
1F
100
AcDbEntity
  8
APPARENT
100
AcDbLine
 10
235.4948874577201
 20
246.2176688659471
 30
0.0
 11
233.8722000113815
 21
245.5447772762666
 31
0.0
  0
LINE
  5
C4
330
1F
100
AcDbEntity
  8
APPARENT
100
AcDbLine
 10
237.4525057127461
 20
247.5172243182531
 30
0.0
 11
237.8355547208093
 21
246.5934962969061
 31
0.0
  0
LINE
  5
C5
330
1F
100
AcDbEntity
  8
APPARENT
100
AcDbLine
 10
234.2331986553799
 20
248.083971166848
 30
0.0
 11
234.8219958680396
 21
247.8403563122857
 31
0.0
  0
LINE
  5
C6
330
1F
100
AcDbEntity
  8
APPARENT
100
AcDbLine
 10
235.5862034118452
 20
246.255535515913
 30
0.0
 11
234.9133118221647
 21
247.8782229622516
 31
0.0
  0
LINE
  5
C7
330
1F
100
AcDbEntity
  8
APPARENT
100
AcDbLine
 10
234.2331986553799
 20
248.083971166848
 30
0.0
 11
235.156926676727
 21
248.4670201749112
 31
0.0
  0
LINE
  5
C8
330
1F
100
AcDbEntity
  8
APPARENT
100
AcDbLine
 10
233.666451806785
 20
244.8646641094818
 30
0.0
 11
233.2834027987218
 21
245.7883921308289
 31
0.0
  0
LINE
  5
C9
330
1F
100
AcDbEntity
  8
APPARENT
100
AcDbLine
 10
237.2467575081496
 20
246.8371111514683
 30
0.0
 11
237.2088908581838
 21
246.9284271055935
 31
0.0
  0
LINE
  5
CA
330
1F
100
AcDbEntity
  8
APPARENT
100
AcDbLine
 10
234.9060902450604
 20
246.4612837205094
 30
0.0
 11
235.4948874577201
 21
246.2176688659471
 31
0.0
  0
LINE
  5
CB
330
1F
100
AcDbEntity
  8
APPARENT
100
AcDbLine
 10
236.2056456973664
 20
244.5036654654834
 30
0.0
 11
236.2969616514916
 21
244.5415321154492
 31
0.0
  0
LINE
  5
CC
330
1F
100
AcDbEntity
  8
APPARENT
100
AcDbLine
 10
234.8219958680396
 20
247.8403563122857
 30
0.0
 11
235.4948874577201
 21
246.2176688659471
 31
0.0
  0
LINE
  5
CD
330
1F
100
AcDbEntity
  8
APPARENT
100
AcDbLine
 10
236.2128672744707
 20
245.9206047072256
 30
0.0
 11
236.8857588641512
 21
244.2979172608869
 31
0.0
  0
LINE
  5
CE
330
1F
100
AcDbEntity
  8
APPARENT
100
AcDbLine
 10
235.9620308428042
 20
243.9148682528237
 30
0.0
 11
236.2056456973664
 21
244.5036654654834
 31
0.0
  0
LINE
  5
CF
330
1F
100
AcDbEntity
  8
APPARENT
100
AcDbLine
 10
233.9100666613473
 20
245.4534613221415
 30
0.0
 11
235.5327541076859
 21
246.126352911822
 31
0.0
  0
LINE
  5
D0
330
1F
100
AcDbEntity
  8
APPARENT
100
AcDbLine
 10
236.2969616514916
 20
244.5415321154492
 30
0.0
 11
235.624070061811
 21
246.1642195617878
 31
0.0
  0
LINE
  5
D1
330
1F
100
AcDbEntity
  8
APPARENT
100
AcDbLine
 10
235.5327541076859
 20
246.126352911822
 30
0.0
 11
236.2056456973664
 21
244.5036654654834
 31
0.0
  0
LINE
  5
D2
330
1F
100
AcDbEntity
  8
APPARENT
100
AcDbLine
 10
236.8857588641512
 20
244.2979172608869
 30
0.0
 11
236.2969616514916
 21
244.5415321154492
 31
0.0
  0
LINE
  5
D3
330
1F
100
AcDbEntity
  8
APPARENT
100
AcDbLine
 10
235.2891392531237
 20
245.5375556991623
 30
0.0
 11
235.5327541076859
 21
246.126352911822
 31
0.0
  0
LINE
  5
D4
330
1F
100
AcDbEntity
  8
APPARENT
100
AcDbLine
 10
235.2891392531237
 20
245.5375556991623
 30
0.0
 11
233.666451806785
 21
244.8646641094818
 31
0.0
  0
CIRCLE
  5
D5
330
1F
100
AcDbEntity
  8
APPARENT
100
AcDbCircle
 10
235.5594787597656
 20
246.1909442138675
 30
0.0
 40
3.0
  0
LINE
  5
D6
330
1F
100
AcDbEntity
  8
APPARENT
100
AcDbLine
 10
233.666451806785
 20
244.8646641094818
 30
0.0
 11
233.9100666613473
 21
245.4534613221415
 31
0.0
  0
LINE
  5
D7
330
1F
100
AcDbEntity
  8
APPARENT
100
AcDbLine
 10
235.156926676727
 20
248.4670201749112
 30
0.0
 11
235.8298182664075
 21
246.8443327285726
 31
0.0
  0
LINE
  5
D8
330
1F
100
AcDbEntity
  8
APPARENT
100
AcDbLine
 10
235.624070061811
 20
246.1642195617878
 30
0.0
 11
237.2467575081496
 21
246.8371111514683
 31
0.0
  0
LINE
  5
D9
330
1F
100
AcDbEntity
  8
APPARENT
100
AcDbLine
 10
235.8298182664075
 20
246.8443327285726
 30
0.0
 11
235.5862034118452
 21
246.255535515913
 31
0.0
  0
CIRCLE
  5
DA
330
1F
100
AcDbEntity
  8
APPARENT
100
AcDbCircle
 10
235.5594787597656
 20
246.1909442138675
 30
0.0
 40
2.5
  0
LINE
  5
DB
330
1F
100
AcDbEntity
  8
APPARENT
100
AcDbLine
 10
236.2128672744707
 20
245.9206047072256
 30
0.0
 11
235.624070061811
 21
246.1642195617878
 31
0.0
  0
LINE
  5
DC
330
1F
100
AcDbEntity
  8
APPARENT
100
AcDbLine
 10
235.8298182664075
 20
246.8443327285726
 30
0.0
 11
237.4525057127461
 21
247.5172243182531
 31
0.0
  0
LINE
  5
DD
330
1F
100
AcDbEntity
  8
APPARENT
100
AcDbLine
 10
233.2834027987218
 20
245.7883921308289
 30
0.0
 11
233.8722000113815
 21
245.5447772762666
 31
0.0
  0
LINE
  5
DE
330
1F
100
AcDbEntity
  8
APPARENT
100
AcDbLine
 10
235.9620308428042
 20
243.9148682528237
 30
0.0
 11
235.2891392531237
 21
245.5375556991623
 31
0.0
  0
LINE
  5
DF
330
1F
100
AcDbEntity
  8
APPARENT
100
AcDbLine
 10
237.4525057127461
 20
247.5172243182531
 30
0.0
 11
237.2088908581838
 21
246.9284271055935
 31
0.0
  0
LINE
  5
E0
330
1F
100
AcDbEntity
  8
APPARENT
100
AcDbLine
 10
234.9133118221647
 20
247.8782229622516
 30
0.0
 11
234.8219958680396
 21
247.8403563122857
 31
0.0
  0
LINE
  5
E1
330
1F
100
AcDbEntity
  8
APPARENT
100
AcDbLine
 10
235.156926676727
 20
248.4670201749112
 30
0.0
 11
234.9133118221647
 21
247.8782229622516
 31
0.0
  0
LINE
  5
E2
330
1F
100
AcDbEntity
  8
APPARENT
100
AcDbLine
 10
234.9060902450604
 20
246.4612837205094
 30
0.0
 11
234.2331986553799
 21
248.083971166848
 31
0.0
  0
LINE
  5
E3
330
1F
100
AcDbEntity
  8
APPARENT
100
AcDbLine
 10
237.8355547208093
 20
246.5934962969061
 30
0.0
 11
236.2128672744707
 21
245.9206047072256
 31
0.0
  0
LINE
  5
E4
330
1F
100
AcDbEntity
  8
APPARENT
100
AcDbLine
 10
233.2834027987218
 20
245.7883921308289
 30
0.0
 11
234.9060902450604
 21
246.4612837205094
 31
0.0
  0
LINE
  5
E5
330
1F
100
AcDbEntity
  8
APPARENT
100
AcDbLine
 10
236.8857588641512
 20
244.2979172608869
 30
0.0
 11
235.9620308428042
 21
243.9148682528237
 31
0.0
  0
LINE
  5
E6
330
1F
100
AcDbEntity
  8
APPARENT
100
AcDbLine
 10
233.8722000113815
 20
245.5447772762666
 30
0.0
 11
233.9100666613473
 21
245.4534613221415
 31
0.0
  0
LINE
  5
E7
330
1F
100
AcDbEntity
  8
APPARENT
100
AcDbLine
 10
258.8549536516063
 20
223.6909442138675
 30
0.0
 11
256.0499536516062
 21
223.6909442138675
 31
0.0
  0
LINE
  5
E8
330
1F
100
AcDbEntity
  8
APPARENT
100
AcDbLine
 10
249.3499536516063
 20
229.1909442138675
 30
0.0
 11
249.3499536516063
 21
228.7378650812235
 31
0.0
  0
LINE
  5
E9
330
1F
100
AcDbEntity
  8
APPARENT
100
AcDbLine
 10
258.8549536516063
 20
226.6909442138675
 30
0.0
 11
258.9549536516063
 21
226.6909442138675
 31
0.0
  0
LINE
  5
EA
330
1F
100
AcDbEntity
  8
APPARENT
100
AcDbLine
 10
259.8999536516063
 20
218.9109442138675
 30
0.0
 11
259.8999536516063
 21
221.3209442138674
 31
0.0
  0
LINE
  5
EB
330
1F
100
AcDbEntity
  8
APPARENT
100
AcDbLine
 10
245.8499536516063
 20
218.9109442138675
 30
0.0
 11
245.8499536516063
 21
221.3209442138674
 31
0.0
  0
LINE
  5
EC
330
1F
100
AcDbEntity
  8
APPARENT
100
AcDbLine
 10
246.8949536516063
 20
223.6909442138675
 30
0.0
 11
246.7949536516062
 21
223.6909442138675
 31
0.0
  0
LINE
  5
ED
330
1F
100
AcDbEntity
  8
APPARENT
100
AcDbLine
 10
249.7499536516063
 20
229.1909442138675
 30
0.0
 11
249.7499536516063
 21
228.7378650812235
 31
0.0
  0
LINE
  5
EE
330
1F
100
AcDbEntity
  8
APPARENT
100
AcDbLine
 10
252.5999536516063
 20
228.7378650812235
 30
0.0
 11
252.5999536516063
 21
226.0721768159155
 31
0.0
  0
LINE
  5
EF
330
1F
100
AcDbEntity
  8
APPARENT
100
AcDbLine
 10
258.8549536516063
 20
224.1159442138675
 30
0.0
 11
258.8549536516063
 21
224.1909442138675
 31
0.0
  0
LINE
  5
F0
330
1F
100
AcDbEntity
  8
APPARENT
100
AcDbLine
 10
258.9549536516063
 20
222.3409442138675
 30
0.0
 11
256.1499536516063
 21
222.3409442138675
 31
0.0
  0
LINE
  5
F1
330
1F
100
AcDbEntity
  8
APPARENT
100
AcDbLine
 10
255.4499536516063
 20
226.0721768159155
 30
0.0
 11
255.0499536516063
 21
226.0721768159155
 31
0.0
  0
LINE
  5
F2
330
1F
100
AcDbEntity
  8
APPARENT
100
AcDbLine
 10
256.3999536516063
 20
226.0721768159155
 30
0.0
 11
256.3999536516063
 21
228.7378650812235
 31
0.0
  0
LINE
  5
F3
330
1F
100
AcDbEntity
  8
APPARENT
100
AcDbLine
 10
251.1949536516063
 20
218.1409442138674
 30
0.0
 11
251.1949536516063
 21
218.2409442138675
 31
0.0
  0
LINE
  5
F4
330
1F
100
AcDbEntity
  8
APPARENT
100
AcDbLine
 10
256.0499536516062
 20
220.6659442138674
 30
0.0
 11
256.1499536516063
 21
220.5659442138674
 31
0.0
  0
LINE
  5
F5
330
1F
100
AcDbEntity
  8
APPARENT
100
AcDbLine
 10
246.8949536516063
 20
226.1909442138675
 30
0.0
 11
246.8949536516063
 21
226.6909442138675
 31
0.0
  0
LINE
  5
F6
330
1F
100
AcDbEntity
  8
APPARENT
100
AcDbLine
 10
254.9049536516063
 20
220.6659442138674
 30
0.0
 11
256.0499536516062
 21
220.6659442138674
 31
0.0
  0
LINE
  5
F7
330
1F
100
AcDbEntity
  8
APPARENT
100
AcDbLine
 10
251.6499536516063
 20
229.1909442138675
 30
0.0
 11
251.6499536516063
 21
228.7378650812235
 31
0.0
  0
LINE
  5
F8
330
1F
100
AcDbEntity
  8
APPARENT
100
AcDbLine
 10
254.0999536516063
 20
226.0721768159155
 30
0.0
 11
254.0999536516063
 21
228.7378650812235
 31
0.0
  0
LINE
  5
F9
330
1F
100
AcDbEntity
  8
APPARENT
100
AcDbLine
 10
254.9049536516063
 20
218.6059442138674
 30
0.0
 11
254.9049536516063
 21
220.6659442138674
 31
0.0
  0
LINE
  5
FA
330
1F
100
AcDbEntity
  8
APPARENT
100
AcDbLine
 10
251.6499536516063
 20
228.7378650812235
 30
0.0
 11
251.6499536516063
 21
226.0721768159155
 31
0.0
  0
LINE
  5
FB
330
1F
100
AcDbEntity
  8
APPARENT
100
AcDbLine
 10
250.8449536516063
 20
218.8909442138674
 30
0.0
 11
254.9049536516063
 21
218.8909442138674
 31
0.0
  0
LINE
  5
FC
330
1F
100
AcDbEntity
  8
APPARENT
100
AcDbLine
 10
246.7949536516062
 20
226.6909442138675
 30
0.0
 11
246.8949536516063
 21
226.6909442138675
 31
0.0
  0
LINE
  5
FD
330
1F
100
AcDbEntity
  8
APPARENT
100
AcDbLine
 10
256.0499536516062
 20
222.4409442138675
 30
0.0
 11
258.8549536516063
 21
222.4409442138675
 31
0.0
  0
LINE
  5
FE
330
1F
100
AcDbEntity
  8
APPARENT
100
AcDbLine
 10
250.2999536516063
 20
229.1909442138675
 30
0.0
 11
250.2999536516063
 21
228.7378650812235
 31
0.0
  0
LINE
  5
FF
330
1F
100
AcDbEntity
  8
APPARENT
100
AcDbLine
 10
252.1999536516063
 20
226.0721768159155
 30
0.0
 11
252.5999536516063
 21
226.0721768159155
 31
0.0
  0
LINE
  5
100
330
1F
100
AcDbEntity
  8
APPARENT
100
AcDbLine
 10
252.1999536516063
 20
229.1909442138675
 30
0.0
 11
252.1999536516063
 21
228.7378650812235
 31
0.0
  0
LINE
  5
101
330
1F
100
AcDbEntity
  8
APPARENT
100
AcDbLine
 10
250.2999536516063
 20
226.0721768159155
 30
0.0
 11
250.6999536516063
 21
226.0721768159155
 31
0.0
  0
LINE
  5
102
330
1F
100
AcDbEntity
  8
APPARENT
100
AcDbLine
 10
253.5499536516063
 20
226.0721768159155
 30
0.0
 11
253.1499536516063
 21
226.0721768159155
 31
0.0
  0
LINE
  5
103
330
1F
100
AcDbEntity
  8
APPARENT
100
AcDbLine
 10
249.6999536516063
 20
220.6659442138674
 30
0.0
 11
250.8449536516063
 21
220.6659442138674
 31
0.0
  0
LINE
  5
104
330
1F
100
AcDbEntity
  8
APPARENT
100
AcDbLine
 10
249.6999536516063
 20
223.6909442138675
 30
0.0
 11
249.6999536516063
 21
222.4409442138675
 31
0.0
  0
LINE
  5
105
330
1F
100
AcDbEntity
  8
APPARENT
100
AcDbLine
 10
250.8449536516063
 20
220.6659442138674
 30
0.0
 11
250.7449536516063
 21
220.5659442138675
 31
0.0
  0
LINE
  5
106
330
1F
100
AcDbEntity
  8
APPARENT
100
AcDbLine
 10
256.5499536516062
 20
221.3409442138675
 30
0.0
 11
256.5499536516062
 21
218.8909442138674
 31
0.0
  0
LINE
  5
107
330
1F
100
AcDbEntity
  8
APPARENT
100
AcDbLine
 10
254.9049536516063
 20
218.6059442138674
 30
0.0
 11
255.0049536516063
 21
218.5909442138674
 31
0.0
  0
LINE
  5
108
330
1F
100
AcDbEntity
  8
APPARENT
100
AcDbLine
 10
245.1349536516063
 20
220.8947677432792
 30
0.0
 11
245.1349536516063
 21
221.4276033643336
 31
0.0
  0
LINE
  5
109
330
1F
100
AcDbEntity
  8
APPARENT
100
AcDbLine
 10
245.1349536516063
 20
223.4242835702168
 30
0.0
 11
245.1349536516063
 21
223.9571206844557
 31
0.0
  0
LINE
  5
10A
330
1F
100
AcDbEntity
  8
APPARENT
100
AcDbLine
 10
245.1349536516063
 20
225.9747677432792
 30
0.0
 11
245.1349536516063
 21
226.5076048919533
 31
0.0
  0
LINE
  5
10B
330
1F
100
AcDbEntity
  8
APPARENT
100
AcDbLine
 10
245.1349536516063
 20
228.5042850643659
 30
0.0
 11
245.1349536516063
 21
229.0371206844557
 31
0.0
  0
LINE
  5
10C
330
1F
100
AcDbEntity
  8
APPARENT
100
AcDbLine
 10
245.1349536516063
 20
231.4909442138675
 30
0.0
 11
245.1349536516063
 21
231.5909442138675
 31
0.0
  0
LINE
  5
10D
330
1F
100
AcDbEntity
  8
APPARENT
100
AcDbLine
 10
246.8949536516063
 20
224.1159442138675
 30
0.0
 11
258.8549536516063
 21
224.1159442138675
 31
0.0
  0
LINE
  5
10E
330
1F
100
AcDbEntity
  8
APPARENT
100
AcDbLine
 10
258.8549536516063
 20
222.4409442138675
 30
0.0
 11
258.9549536516063
 21
222.3409442138675
 31
0.0
  0
LINE
  5
10F
330
1F
100
AcDbEntity
  8
APPARENT
100
AcDbLine
 10
247.9959040812994
 20
224.9659442138675
 30
0.0
 11
257.7540032219132
 21
224.9659442138675
 31
0.0
  0
LINE
  5
110
330
1F
100
AcDbEntity
  8
APPARENT
100
AcDbLine
 10
250.8449536516063
 20
220.6659442138674
 30
0.0
 11
250.8449536516063
 21
218.6059442138674
 31
0.0
  0
LINE
  5
111
330
1F
100
AcDbEntity
  8
APPARENT
100
AcDbLine
 10
249.1799536516063
 20
221.3209442138674
 30
0.0
 11
249.1799536516063
 21
218.9109442138675
 31
0.0
  0
LINE
  5
112
330
1F
100
AcDbEntity
  8
APPARENT
100
AcDbLine
 10
246.8949536516063
 20
223.6909442138675
 30
0.0
 11
246.8949536516063
 21
222.4409442138675
 31
0.0
  0
LINE
  5
113
330
1F
100
AcDbEntity
  8
APPARENT
100
AcDbLine
 10
250.7449536516063
 20
218.5909442138675
 30
0.0
 11
255.0049536516063
 21
218.5909442138675
 31
0.0
  0
LINE
  5
114
330
1F
100
AcDbEntity
  8
APPARENT
100
AcDbLine
 10
258.9549536516063
 20
221.3409442138675
 30
0.0
 11
256.5499536516062
 21
221.3409442138675
 31
0.0
  0
LINE
  5
115
330
1F
100
AcDbEntity
  8
APPARENT
100
AcDbLine
 10
258.8549536516063
 20
229.1909442138675
 30
0.0
 11
258.9549536516063
 21
229.2909442138674
 31
0.0
  0
LINE
  5
116
330
1F
100
AcDbEntity
  8
APPARENT
100
AcDbLine
 10
252.4649536516063
 20
218.1409442138674
 30
0.0
 11
252.4649536516063
 21
218.2409442138675
 31
0.0
  0
LINE
  5
117
330
1F
100
AcDbEntity
  8
APPARENT
100
AcDbLine
 10
250.7449536516062
 20
218.5909442138674
 30
0.0
 11
250.8449536516063
 21
218.6059442138674
 31
0.0
  0
LINE
  5
118
330
1F
100
AcDbEntity
  8
APPARENT
100
AcDbLine
 10
246.8949536516063
 20
222.4409442138675
 30
0.0
 11
249.6999536516063
 21
222.4409442138675
 31
0.0
  0
LINE
  5
119
330
1F
100
AcDbEntity
  8
APPARENT
100
AcDbLine
 10
258.8549536516063
 20
222.4409442138675
 30
0.0
 11
258.8549536516063
 21
223.6909442138675
 31
0.0
  0
LINE
  5
11A
330
1F
100
AcDbEntity
  8
APPARENT
100
AcDbLine
 10
249.5999536516063
 20
220.5659442138675
 30
0.0
 11
249.5999536516063
 21
222.3409442138675
 31
0.0
  0
LINE
  5
11B
330
1F
100
AcDbEntity
  8
APPARENT
100
AcDbLine
 10
246.8949536516062
 20
222.4409442138675
 30
0.0
 11
246.7949536516062
 21
222.3409442138674
 31
0.0
  0
LINE
  5
11C
330
1F
100
AcDbEntity
  8
APPARENT
100
AcDbLine
 10
249.5999536516063
 20
222.3409442138675
 30
0.0
 11
246.7949536516062
 21
222.3409442138675
 31
0.0
  0
LINE
  5
11D
330
1F
100
AcDbEntity
  8
APPARENT
100
AcDbLine
 10
258.8549536516063
 20
229.1909442138675
 30
0.0
 11
246.8949536516063
 21
229.1909442138675
 31
0.0
  0
LINE
  5
11E
330
1F
100
AcDbEntity
  8
APPARENT
100
AcDbLine
 10
251.2499536516063
 20
229.1909442138675
 30
0.0
 11
251.2499536516063
 21
228.7378650812235
 31
0.0
  0
LINE
  5
11F
330
1F
100
AcDbEntity
  8
APPARENT
100
AcDbLine
 10
254.4999536516063
 20
226.0721768159155
 30
0.0
 11
254.4999536516063
 21
228.7378650812235
 31
0.0
  0
LINE
  5
120
330
1F
100
AcDbEntity
  8
APPARENT
100
AcDbLine
 10
246.7949536516062
 20
229.2909442138674
 30
0.0
 11
246.8949536516063
 21
229.1909442138675
 31
0.0
  0
LINE
  5
121
330
1F
100
AcDbEntity
  8
APPARENT
100
AcDbLine
 10
256.1499536516063
 20
222.3409442138675
 30
0.0
 11
256.1499536516063
 21
220.5659442138675
 31
0.0
  0
LINE
  5
122
330
1F
100
AcDbEntity
  8
APPARENT
100
AcDbLine
 10
245.8499536516063
 20
221.3209442138674
 30
0.0
 11
249.1799536516063
 21
221.3209442138674
 31
0.0
  0
LINE
  5
123
330
1F
100
AcDbEntity
  8
APPARENT
100
AcDbLine
 10
258.8549536516063
 20
226.1909442138675
 30
0.0
 11
258.8549536516063
 21
226.6909442138675
 31
0.0
  0
LINE
  5
124
330
1F
100
AcDbEntity
  8
APPARENT
100
AcDbLine
 10
250.2999536516063
 20
228.7378650812235
 30
0.0
 11
250.2999536516063
 21
226.0721768159155
 31
0.0
  0
LINE
  5
125
330
1F
100
AcDbEntity
  8
APPARENT
100
AcDbLine
 10
256.0499536516062
 20
223.6909442138675
 30
0.0
 11
256.0499536516062
 21
222.4409442138675
 31
0.0
  0
LINE
  5
126
330
1F
100
AcDbEntity
  8
APPARENT
100
AcDbLine
 10
250.7449536516063
 20
218.8909442138674
 30
0.0
 11
250.7449536516063
 21
220.5659442138675
 31
0.0
  0
LINE
  5
127
330
1F
100
AcDbEntity
  8
APPARENT
100
AcDbLine
 10
256.0499536516062
 20
220.6659442138674
 30
0.0
 11
256.0499536516062
 21
222.4409442138675
 31
0.0
  0
LINE
  5
128
330
1F
100
AcDbEntity
  8
APPARENT
100
AcDbLine
 10
250.6999536516063
 20
229.1909442138675
 30
0.0
 11
250.6999536516063
 21
228.7378650812235
 31
0.0
  0
LINE
  5
129
330
1F
100
AcDbEntity
  8
APPARENT
100
AcDbLine
 10
256.5699536516063
 20
221.3209442138674
 30
0.0
 11
256.5699536516063
 21
218.9109442138675
 31
0.0
  0
LINE
  5
12A
330
1F
100
AcDbEntity
  8
APPARENT
100
AcDbLine
 10
249.6999536516063
 20
220.6659442138674
 30
0.0
 11
249.5999536516063
 21
220.5659442138675
 31
0.0
  0
LINE
  5
12B
330
1F
100
AcDbEntity
  8
APPARENT
100
AcDbLine
 10
246.8949536516063
 20
224.1159442138675
 30
0.0
 11
246.8949536516063
 21
224.1909442138675
 31
0.0
  0
LINE
  5
12C
330
1F
100
AcDbEntity
  8
APPARENT
100
AcDbLine
 10
255.0499536516063
 20
228.7378650812235
 30
0.0
 11
255.0499536516063
 21
229.1909442138675
 31
0.0
  0
LINE
  5
12D
330
1F
100
AcDbEntity
  8
APPARENT
100
AcDbLine
 10
250.6999536516063
 20
228.7378650812235
 30
0.0
 11
250.6999536516063
 21
226.0721768159155
 31
0.0
  0
LINE
  5
12E
330
1F
100
AcDbEntity
  8
APPARENT
100
AcDbLine
 10
251.2499536516063
 20
226.0721768159155
 30
0.0
 11
251.6499536516063
 21
226.0721768159155
 31
0.0
  0
LINE
  5
12F
330
1F
100
AcDbEntity
  8
APPARENT
100
AcDbLine
 10
253.2849536516063
 20
218.1409442138674
 30
0.0
 11
253.2849536516063
 21
218.2409442138675
 31
0.0
  0
LINE
  5
130
330
1F
100
AcDbEntity
  8
APPARENT
100
AcDbLine
 10
255.4499536516063
 20
226.0721768159155
 30
0.0
 11
255.4499536516063
 21
228.7378650812235
 31
0.0
  0
LINE
  5
131
330
1F
100
AcDbEntity
  8
APPARENT
100
AcDbLine
 10
249.3499536516063
 20
226.0721768159155
 30
0.0
 11
249.7499536516063
 21
226.0721768159155
 31
0.0
  0
LINE
  5
132
330
1F
100
AcDbEntity
  8
APPARENT
100
AcDbLine
 10
254.4999536516063
 20
228.7378650812235
 30
0.0
 11
254.4999536516063
 21
229.1909442138675
 31
0.0
  0
LINE
  5
133
330
1F
100
AcDbEntity
  8
APPARENT
100
AcDbLine
 10
253.5499536516063
 20
226.0721768159155
 30
0.0
 11
253.5499536516063
 21
228.7378650812235
 31
0.0
  0
LINE
  5
134
330
1F
100
AcDbEntity
  8
APPARENT
100
AcDbLine
 10
260.6149536516062
 20
231.4909442138674
 30
0.0
 11
260.6149536516062
 21
231.5909442138675
 31
0.0
  0
LINE
  5
135
330
1F
100
AcDbEntity
  8
APPARENT
100
AcDbLine
 10
260.6149536516062
 20
228.5042850634013
 30
0.0
 11
260.6149536516062
 21
229.0371206844557
 31
0.0
  0
LINE
  5
136
330
1F
100
AcDbEntity
  8
APPARENT
100
AcDbLine
 10
260.6149536516062
 20
225.9747677432792
 30
0.0
 11
260.6149536516062
 21
226.5076048575181
 31
0.0
  0
LINE
  5
137
330
1F
100
AcDbEntity
  8
APPARENT
100
AcDbLine
 10
260.6149536516062
 20
223.4242835357816
 30
0.0
 11
260.6149536516062
 21
223.9571206844557
 31
0.0
  0
LINE
  5
138
330
1F
100
AcDbEntity
  8
APPARENT
100
AcDbLine
 10
260.6149536516062
 20
220.8947677432792
 30
0.0
 11
260.6149536516062
 21
221.427603363369
 31
0.0
  0
LINE
  5
139
330
1F
100
AcDbEntity
  8
APPARENT
100
AcDbLine
 10
249.7499536516063
 20
228.7378650812235
 30
0.0
 11
249.7499536516063
 21
226.0721768159155
 31
0.0
  0
LINE
  5
13A
330
1F
100
AcDbEntity
  8
APPARENT
100
AcDbLine
 10
246.8949536516063
 20
223.6909442138675
 30
0.0
 11
249.6999536516063
 21
223.6909442138675
 31
0.0
  0
LINE
  5
13B
330
1F
100
AcDbEntity
  8
APPARENT
100
AcDbLine
 10
246.7949536516063
 20
221.3409442138675
 30
0.0
 11
249.1999536516063
 21
221.3409442138675
 31
0.0
  0
LINE
  5
13C
330
1F
100
AcDbEntity
  8
APPARENT
100
AcDbLine
 10
258.8549536516063
 20
226.6909442138675
 30
0.0
 11
258.8549536516063
 21
229.1909442138675
 31
0.0
  0
LINE
  5
13D
330
1F
100
AcDbEntity
  8
APPARENT
100
AcDbLine
 10
255.0049536516063
 20
220.5659442138675
 30
0.0
 11
255.0049536516063
 21
218.8909442138674
 31
0.0
  0
LINE
  5
13E
330
1F
100
AcDbEntity
  8
APPARENT
100
AcDbLine
 10
254.9049536516063
 20
220.6659442138674
 30
0.0
 11
255.0049536516063
 21
220.5659442138675
 31
0.0
  0
LINE
  5
13F
330
1F
100
AcDbEntity
  8
APPARENT
100
AcDbLine
 10
252.0149536516063
 20
218.1409442138674
 30
0.0
 11
252.0149536516063
 21
218.2409442138675
 31
0.0
  0
LINE
  5
140
330
1F
100
AcDbEntity
  8
APPARENT
100
AcDbLine
 10
256.0499536516062
 20
222.4409442138675
 30
0.0
 11
256.1499536516063
 21
222.3409442138675
 31
0.0
  0
LINE
  5
141
330
1F
100
AcDbEntity
  8
APPARENT
100
AcDbLine
 10
249.6999536516063
 20
222.4409442138675
 30
0.0
 11
249.5999536516063
 21
222.3409442138675
 31
0.0
  0
LINE
  5
142
330
1F
100
AcDbEntity
  8
APPARENT
100
AcDbLine
 10
256.3999536516063
 20
228.7378650812235
 30
0.0
 11
256.3999536516063
 21
229.1909442138675
 31
0.0
  0
LINE
  5
143
330
1F
100
AcDbEntity
  8
APPARENT
100
AcDbLine
 10
252.5999536516063
 20
229.1909442138675
 30
0.0
 11
252.5999536516063
 21
228.7378650812235
 31
0.0
  0
LINE
  5
144
330
1F
100
AcDbEntity
  8
APPARENT
100
AcDbLine
 10
253.1499536516063
 20
226.0721768159155
 30
0.0
 11
253.1499536516063
 21
228.7378650812235
 31
0.0
  0
LINE
  5
145
330
1F
100
AcDbEntity
  8
APPARENT
100
AcDbLine
 10
258.9549536516063
 20
223.6909442138675
 30
0.0
 11
258.8549536516063
 21
223.6909442138675
 31
0.0
  0
LINE
  5
146
330
1F
100
AcDbEntity
  8
APPARENT
100
AcDbLine
 10
254.0999536516063
 20
228.7378650812235
 30
0.0
 11
254.0999536516063
 21
229.1909442138675
 31
0.0
  0
LINE
  5
147
330
1F
100
AcDbEntity
  8
APPARENT
100
AcDbLine
 10
253.7349536516063
 20
218.1409442138674
 30
0.0
 11
253.7349536516063
 21
218.2409442138675
 31
0.0
  0
ARC
  5
148
330
1F
100
AcDbEntity
  8
APPARENT
100
AcDbCircle
 10
260.5149536516063
 20
231.5909442138674
 30
0.0
 40
0.0999999999999659
100
AcDbArc
 50
0.0
 51
90.0
  0
LINE
  5
149
330
1F
100
AcDbEntity
  8
APPARENT
100
AcDbLine
 10
254.5549536516063
 20
218.1409442138674
 30
0.0
 11
254.5549536516063
 21
218.2409442138675
 31
0.0
  0
LINE
  5
14A
330
1F
100
AcDbEntity
  8
APPARENT
100
AcDbLine
 10
250.7449536516063
 20
220.5659442138675
 30
0.0
 11
249.5999536516063
 21
220.5659442138675
 31
0.0
  0
LINE
  5
14B
330
1F
100
AcDbEntity
  8
APPARENT
100
AcDbLine
 10
252.1999536516063
 20
228.7378650812235
 30
0.0
 11
252.1999536516063
 21
226.0721768159155
 31
0.0
  0
LINE
  5
14C
330
1F
100
AcDbEntity
  8
APPARENT
100
AcDbLine
 10
255.9999536516063
 20
228.7378650812235
 30
0.0
 11
255.9999536516063
 21
229.1909442138675
 31
0.0
  0
LINE
  5
14D
330
1F
100
AcDbEntity
  8
APPARENT
100
AcDbLine
 10
256.1499536516063
 20
220.5659442138675
 30
0.0
 11
255.0049536516063
 21
220.5659442138675
 31
0.0
  0
LINE
  5
14E
330
1F
100
AcDbEntity
  8
APPARENT
100
AcDbLine
 10
249.3499536516063
 20
228.7378650812235
 30
0.0
 11
249.3499536516063
 21
226.0721768159155
 31
0.0
  0
LINE
  5
14F
330
1F
100
AcDbEntity
  8
APPARENT
100
AcDbLine
 10
253.1499536516063
 20
228.7378650812235
 30
0.0
 11
253.1499536516063
 21
229.1909442138675
 31
0.0
  0
LINE
  5
150
330
1F
100
AcDbEntity
  8
APPARENT
100
AcDbLine
 10
249.1799536516063
 20
218.9109442138675
 30
0.0
 11
245.8499536516063
 21
218.9109442138675
 31
0.0
  0
LINE
  5
151
330
1F
100
AcDbEntity
  8
APPARENT
100
AcDbLine
 10
250.7449536516063
 20
218.2409442138674
 30
0.0
 11
255.0049536516063
 21
218.2409442138674
 31
0.0
  0
LINE
  5
152
330
1F
100
AcDbEntity
  8
APPARENT
100
AcDbLine
 10
249.6999536516063
 20
222.4409442138675
 30
0.0
 11
249.6999536516063
 21
220.6659442138674
 31
0.0
  0
LINE
  5
153
330
1F
100
AcDbEntity
  8
APPARENT
100
AcDbLine
 10
248.8037771810181
 20
231.6909442138675
 30
0.0
 11
249.338516513474
 21
231.6909442138675
 31
0.0
  0
LINE
  5
154
330
1F
100
AcDbEntity
  8
APPARENT
100
AcDbLine
 10
251.3313907907032
 20
231.6909442138675
 30
0.0
 11
251.8661301221945
 21
231.6909442138675
 31
0.0
  0
LINE
  5
155
330
1F
100
AcDbEntity
  8
APPARENT
100
AcDbLine
 10
253.883777181018
 20
231.6909442138675
 30
0.0
 11
254.418516513474
 21
231.6909442138675
 31
0.0
  0
LINE
  5
156
330
1F
100
AcDbEntity
  8
APPARENT
100
AcDbLine
 10
256.4113907907032
 20
231.6909442138675
 30
0.0
 11
256.9461301221945
 21
231.6909442138675
 31
0.0
  0
LINE
  5
157
330
1F
100
AcDbEntity
  8
APPARENT
100
AcDbLine
 10
255.4499536516063
 20
228.7378650812235
 30
0.0
 11
255.4499536516063
 21
229.1909442138675
 31
0.0
  0
LINE
  5
158
330
1F
100
AcDbEntity
  8
APPARENT
100
AcDbLine
 10
251.2499536516063
 20
228.7378650812235
 30
0.0
 11
251.2499536516063
 21
226.0721768159155
 31
0.0
  0
LINE
  5
159
330
1F
100
AcDbEntity
  8
APPARENT
100
AcDbLine
 10
254.4999536516063
 20
226.0721768159155
 30
0.0
 11
254.0999536516063
 21
226.0721768159155
 31
0.0
  0
LINE
  5
15A
330
1F
100
AcDbEntity
  8
APPARENT
100
AcDbLine
 10
255.0499536516063
 20
226.0721768159155
 30
0.0
 11
255.0499536516063
 21
228.7378650812235
 31
0.0
  0
LINE
  5
15B
330
1F
100
AcDbEntity
  8
APPARENT
100
AcDbLine
 10
259.8999536516063
 20
221.3209442138674
 30
0.0
 11
256.5699536516063
 21
221.3209442138674
 31
0.0
  0
LINE
  5
15C
330
1F
100
AcDbEntity
  8
APPARENT
100
AcDbLine
 10
256.5699536516063
 20
218.9109442138675
 30
0.0
 11
259.8999536516063
 21
218.9109442138675
 31
0.0
  0
ARC
  5
15D
330
1F
100
AcDbEntity
  8
APPARENT
100
AcDbCircle
 10
245.2349536516063
 20
231.5909442138675
 30
0.0
 40
0.0999999999999943
100
AcDbArc
 50
90.0
 51
180.0
  0
LINE
  5
15E
330
1F
100
AcDbEntity
  8
APPARENT
100
AcDbLine
 10
246.8949536516063
 20
229.1909442138675
 30
0.0
 11
246.8949536516063
 21
226.6909442138675
 31
0.0
  0
LINE
  5
15F
330
1F
100
AcDbEntity
  8
APPARENT
100
AcDbLine
 10
249.1999536516063
 20
221.3409442138675
 30
0.0
 11
249.1999536516063
 21
218.8909442138674
 31
0.0
  0
LINE
  5
160
330
1F
100
AcDbEntity
  8
APPARENT
100
AcDbLine
 10
256.3999536516063
 20
226.0721768159155
 30
0.0
 11
255.9999536516063
 21
226.0721768159155
 31
0.0
  0
LINE
  5
161
330
1F
100
AcDbEntity
  8
APPARENT
100
AcDbLine
 10
253.5499536516063
 20
228.7378650812235
 30
0.0
 11
253.5499536516063
 21
229.1909442138675
 31
0.0
  0
LINE
  5
162
330
1F
100
AcDbEntity
  8
APPARENT
100
AcDbLine
 10
255.9999536516063
 20
226.0721768159155
 30
0.0
 11
255.9999536516063
 21
228.7378650812235
 31
0.0
  0
LINE
  5
163
330
1F
100
AcDbEntity
  8
APPARENT
100
AcDbLine
 10
249.3403751726185
 20
231.7597114245681
 30
0.0
 11
249.3349536516063
 21
231.4909441545905
 31
0.0
  0
LINE
  5
164
330
1F
100
AcDbEntity
  8
APPARENT
100
AcDbLine
 10
247.5899622816593
 20
224.1909442138675
 30
0.0
 11
247.5518728036937
 21
224.1909442138675
 31
0.0
  0
LINE
  5
165
330
1F
100
AcDbEntity
  8
APPARENT
100
AcDbLine
 10
246.7949536516062
 20
224.1909442138675
 30
0.0
 11
246.7949536516062
 21
221.3409442138675
 31
0.0
  0
LINE
  5
166
330
1F
100
AcDbEntity
  8
APPARENT
100
AcDbLine
 10
258.9549536516063
 20
221.3409442138674
 30
0.0
 11
258.9549536516063
 21
224.1909442138675
 31
0.0
  0
LINE
  5
167
330
1F
100
AcDbEntity
  8
APPARENT
100
AcDbLine
 10
260.783720862307
 20
223.4205226928552
 30
0.0
 11
261.2149536516063
 21
223.3919743139809
 31
0.0
  0
ELLIPSE
  5
168
330
1F
100
AcDbEntity
  8
APPARENT
100
AcDbEllipse
 10
260.5149536516063
 20
225.9747677432792
 30
0.0
 11
-0.1000000000000227
 21
0.0
 31
0.0
210
0.0
220
0.0
230
1.0
 40
0.0294117647058489
 41
1.570796326794897
 42
3.141592653589797
  0
LINE
  5
169
330
1F
100
AcDbEntity
  8
APPARENT
100
AcDbLine
 10
260.8149536516063
 20
228.801653631211
 30
0.0
 11
260.8149536516063
 21
229.0371206844557
 31
0.0
  0
LINE
  5
16A
330
1F
100
AcDbEntity
  8
APPARENT
100
AcDbLine
 10
244.9349536516063
 20
218.1409442138674
 30
0.0
 11
244.9349536516063
 21
220.8947677432792
 31
0.0
  0
LINE
  5
16B
330
1F
100
AcDbEntity
  8
APPARENT
100
AcDbLine
 10
245.2349536516063
 20
231.4909442138675
 30
0.0
 11
244.9349536516063
 21
231.4909442138675
 31
0.0
  0
ELLIPSE
  5
16C
330
1F
100
AcDbEntity
  8
APPARENT
100
AcDbEllipse
 10
245.2349536516062
 20
220.8947677432792
 30
0.0
 11
-0.2999999999999829
 21
0.0
 31
0.0
210
0.0
220
0.0
230
1.0
 40
0.0294117647058573
 41
0.0
 42
1.570796326794897
  0
LINE
  5
16D
330
1F
100
AcDbEntity
  8
APPARENT
100
AcDbLine
 10
255.0049536516063
 20
217.8409442138675
 30
0.0
 11
255.0049536516063
 21
218.1409442138674
 31
0.0
  0
LINE
  5
16E
330
1F
100
AcDbEntity
  8
APPARENT
100
AcDbLine
 10
249.3589932842743
 20
232.0409442138675
 30
0.0
 11
249.3403751726185
 21
231.7597114245681
 31
0.0
  0
LINE
  5
16F
330
1F
100
AcDbEntity
  8
APPARENT
100
AcDbLine
 10
248.7949536516063
 20
231.4909442138675
 30
0.0
 11
249.3349536516063
 21
231.4909442138675
 31
0.0
  0
LINE
  5
170
330
1F
100
AcDbEntity
  8
APPARENT
100
AcDbLine
 10
255.0049536516063
 20
218.1409442138674
 30
0.0
 11
250.7449536516063
 21
218.1409442138674
 31
0.0
  0
ELLIPSE
  5
171
330
1F
100
AcDbEntity
  8
APPARENT
100
AcDbEllipse
 10
260.5149536516063
 20
229.0371206844557
 30
0.0
 11
-0.1000000000000227
 21
0.0
 31
0.0
210
0.0
220
0.0
230
1.0
 40
0.0294117647058489
 41
-3.141592653589789
 42
-1.570796326794897
  0
LINE
  5
172
330
1F
100
AcDbEntity
  8
APPARENT
100
AcDbLine
 10
253.883777181018
 20
231.7909442138674
 30
0.0
 11
254.1192442342627
 21
231.7909442138675
 31
0.0
  0
LINE
  5
173
330
1F
100
AcDbEntity
  8
APPARENT
100
AcDbLine
 10
246.7949536516062
 20
221.3409442138675
 30
0.0
 11
245.8299536516063
 21
221.3409442138675
 31
0.0
  0
LINE
  5
174
330
1F
100
AcDbEntity
  8
APPARENT
100
AcDbLine
 10
255.0049536516063
 20
218.1409442138674
 30
0.0
 11
255.0049536516063
 21
218.8909442138674
 31
0.0
  0
LINE
  5
175
330
1F
100
AcDbEntity
  8
APPARENT
100
AcDbLine
 10
250.7449536516063
 20
218.8909442138674
 30
0.0
 11
250.7449536516063
 21
218.1409442138674
 31
0.0
  0
LINE
  5
176
330
1F
100
AcDbEntity
  8
APPARENT
100
AcDbLine
 10
247.0903959775099
 20
226.1909442138675
 30
0.0
 11
246.7949536516062
 21
226.1909442138675
 31
0.0
  0
LINE
  5
177
330
1F
100
AcDbEntity
  8
APPARENT
100
AcDbLine
 10
254.3191577851556
 20
231.7909442138675
 30
0.0
 11
254.42244283891
 21
231.7909442138675
 31
0.0
  0
LINE
  5
178
330
1F
100
AcDbEntity
  8
APPARENT
100
AcDbLine
 10
256.4074644643026
 20
231.7909442138675
 30
0.0
 11
256.5107495180569
 21
231.7909442138675
 31
0.0
  0
LINE
  5
179
330
1F
100
AcDbEntity
  8
APPARENT
100
AcDbLine
 10
254.4149536516063
 20
231.4909442138675
 30
0.0
 11
253.8749536516063
 21
231.4909442138675
 31
0.0
  0
ARC
  5
17A
330
1F
100
AcDbEntity
  8
APPARENT
100
AcDbCircle
 10
245.2349536516063
 20
231.4909442138675
 30
0.0
 40
0.3000000000000114
100
AcDbArc
 50
90.0
 51
135.0
  0
LINE
  5
17B
330
1F
100
AcDbEntity
  8
APPARENT
100
AcDbLine
 10
260.8149536516063
 20
221.130234796524
 30
0.0
 11
260.8149536516063
 21
220.8947677432792
 31
0.0
  0
SPLINE
  5
17C
330
1F
100
AcDbEntity
  8
APPARENT
100
AcDbSpline
210
0.0
220
0.0
230
1.0
 70
     8
 71
     3
 72
    10
 73
     6
 74
     0
 42
0.000000001
 43
0.000001
 12
1.0
 22
0.0
 32
0.0
 13
1.0
 23
0.0
 33
0.0
 40
0.0
 40
0.0
 40
0.0
 40
0.0
 40
0.4999999110537335
 40
0.4999999110537335
 40
0.999999822107467
 40
0.999999822107467
 40
0.999999822107467
 40
0.999999822107467
 10
245.2349536516063
 20
228.5059442138675
 30
0.0
 10
245.1794320409991
 20
228.5050406270321
 30
0.0
 10
245.1239970822818
 20
228.5041370401967
 30
0.0
 10
245.0296340470051
 20
228.502329866526
 30
0.0
 10
244.9908532416658
 20
228.5014262796906
 30
0.0
 10
244.9661864408986
 20
228.5005226938197
 30
0.0
  0
LINE
  5
17D
330
1F
100
AcDbEntity
  8
APPARENT
100
AcDbLine
 10
245.8299536516063
 20
221.3409442138675
 30
0.0
 11
245.8299536516063
 21
218.8909442138674
 31
0.0
  0
LINE
  5
17E
330
1F
100
AcDbEntity
  8
APPARENT
100
AcDbLine
 10
260.5149536516063
 20
231.4909442138674
 30
0.0
 11
260.5149536516063
 21
231.7909442138674
 31
0.0
  0
SPLINE
  5
17F
330
1F
100
AcDbEntity
  8
APPARENT
100
AcDbSpline
210
0.0
220
0.0
230
1.0
 70
     8
 71
     3
 72
     8
 73
     4
 74
     0
 42
0.000000001
 43
0.000001
 12
1.0
 22
0.0
 32
0.0
 13
1.0
 23
0.0
 33
0.0
 40
0.0
 40
0.0
 40
0.0
 40
0.0
 40
0.9999998250814435
 40
0.9999998250814435
 40
0.9999998250814435
 40
0.9999998250814435
 10
260.783720862307
 20
226.5113657348797
 30
0.0
 10
260.7335838841619
 20
226.5095291345236
 30
0.0
 10
260.627801734122
 20
226.5077807599467
 30
0.0
 10
260.5149536515472
 20
226.5059442148312
 30
0.0
  0
LINE
  5
180
330
1F
100
AcDbEntity
  8
APPARENT
100
AcDbLine
 10
260.8149536516063
 20
231.4909442138674
 30
0.0
 11
260.5149536516063
 21
231.4909442138674
 31
0.0
  0
ARC
  5
181
330
1F
100
AcDbEntity
  8
APPARENT
100
AcDbCircle
 10
260.5149536516063
 20
231.4909442138675
 30
0.0
 40
0.3000000000000145
100
AcDbArc
 50
44.99999999999616
 51
90.0
  0
LINE
  5
182
330
1F
100
AcDbEntity
  8
APPARENT
100
AcDbLine
 10
250.7449536516063
 20
218.1409442138674
 30
0.0
 11
250.7449536516063
 21
217.8409442138675
 31
0.0
  0
LINE
  5
183
330
1F
100
AcDbEntity
  8
APPARENT
100
AcDbLine
 10
244.9349536516063
 20
218.1409442138674
 30
0.0
 11
245.2349536516062
 21
218.1409442138674
 31
0.0
  0
ELLIPSE
  5
184
330
1F
100
AcDbEntity
  8
APPARENT
100
AcDbEllipse
 10
260.5149536516063
 20
220.8947677432792
 30
0.0
 11
0.09999999999996589
 21
0.0
 31
0.0
210
0.0
220
0.0
230
1.0
 40
0.0294117647058656
 41
4.71238898038469
 42
6.283185307179586
  0
ARC
  5
185
330
1F
100
AcDbEntity
  8
APPARENT
100
AcDbCircle
 10
245.2349536516062
 20
218.1409442138675
 30
0.0
 40
0.2999999999999829
100
AcDbArc
 50
180.0
 51
270.0
  0
LINE
  5
186
330
1F
100
AcDbEntity
  8
APPARENT
100
AcDbLine
 10
244.9349536516063
 20
228.6017400803181
 30
0.0
 11
244.9349536516063
 21
228.4984550265637
 31
0.0
  0
LINE
  5
187
330
1F
100
AcDbEntity
  8
APPARENT
100
AcDbLine
 10
244.9349536516063
 20
226.5134334011712
 30
0.0
 11
244.9349536516063
 21
226.4101483474168
 31
0.0
  0
LINE
  5
188
330
1F
100
AcDbEntity
  8
APPARENT
100
AcDbLine
 10
244.9349536516063
 20
223.721653631211
 30
0.0
 11
244.9349536516063
 21
223.9571206844557
 31
0.0
  0
ELLIPSE
  5
189
330
1F
100
AcDbEntity
  8
APPARENT
100
AcDbEllipse
 10
245.2349536516063
 20
229.0371206844557
 30
0.0
 11
-0.09999999999999432
 21
0.0
 31
0.0
210
0.0
220
0.0
230
1.0
 40
0.0294117647058573
 41
-1.570796326794897
 42
0.0
  0
ELLIPSE
  5
18A
330
1F
100
AcDbEntity
  8
APPARENT
100
AcDbEllipse
 10
256.9461301221945
 20
231.4909442138674
 30
0.0
 11
0.0
 21
0.3000000000000114
 31
0.0
210
0.0
220
0.0
230
1.0
 40
0.0294117647058545
 41
-1.570796326794897
 42
0.0
  0
LINE
  5
18B
330
1F
100
AcDbEntity
  8
APPARENT
100
AcDbLine
 10
257.7540032219132
 20
224.1909442138675
 30
0.0
 11
258.1599450215533
 21
224.1909442138675
 31
0.0
  0
LINE
  5
18C
330
1F
100
AcDbEntity
  8
APPARENT
100
AcDbLine
 10
260.8149536516063
 20
228.6017400803181
 30
0.0
 11
260.8149536516063
 21
228.801653631211
 31
0.0
  0
LINE
  5
18D
330
1F
100
AcDbEntity
  8
APPARENT
100
AcDbLine
 10
247.5899622816593
 20
226.1909442138675
 30
0.0
 11
247.9959040812994
 21
226.1909442138675
 31
0.0
  0
LINE
  5
18E
330
1F
100
AcDbEntity
  8
APPARENT
100
AcDbLine
 10
260.5149536516063
 20
229.0459442138674
 30
0.0
 11
260.5149536516063
 21
228.5059442138675
 31
0.0
  0
LINE
  5
18F
330
1F
100
AcDbEntity
  8
APPARENT
100
AcDbLine
 10
260.5149536516063
 20
218.1409442138674
 30
0.0
 11
260.8149536516063
 21
218.1409442138674
 31
0.0
  0
LINE
  5
190
330
1F
100
AcDbEntity
  8
APPARENT
100
AcDbLine
 10
247.5518728036937
 20
224.1909442138675
 30
0.0
 11
247.0903959775099
 21
224.1909442138675
 31
0.0
  0
LINE
  5
191
330
1F
100
AcDbEntity
  8
APPARENT
100
AcDbLine
 10
245.2349536516062
 20
225.9659442138675
 30
0.0
 11
245.2349536516062
 21
226.5059442138675
 31
0.0
  0
LINE
  5
192
330
1F
100
AcDbEntity
  8
APPARENT
100
AcDbLine
 10
254.4389932842743
 20
232.0409442138675
 30
0.0
 11
254.4203751726185
 21
231.7597114245681
 31
0.0
  0
LINE
  5
193
330
1F
100
AcDbEntity
  8
APPARENT
100
AcDbLine
 10
261.2149536516063
 20
226.539914113754
 30
0.0
 11
260.783720862307
 21
226.5113657348797
 31
0.0
  0
LINE
  5
194
330
1F
100
AcDbEntity
  8
APPARENT
100
AcDbLine
 10
244.9661864409056
 20
226.5113657348797
 30
0.0
 11
244.3149536516063
 21
226.5544785056746
 31
0.0
  0
LINE
  5
195
330
1F
100
AcDbEntity
  8
APPARENT
100
AcDbLine
 10
246.7949536516063
 20
229.2909442138674
 30
0.0
 11
246.7949536516062
 21
226.1909442138675
 31
0.0
  0
LINE
  5
196
330
1F
100
AcDbEntity
  8
APPARENT
100
AcDbLine
 10
249.0392442342628
 20
231.7909442138675
 30
0.0
 11
248.803777181018
 21
231.7909442138674
 31
0.0
  0
LINE
  5
197
330
1F
100
AcDbEntity
  8
APPARENT
100
AcDbLine
 10
244.9349536516063
 20
221.3301483474168
 30
0.0
 11
244.9349536516063
 21
221.4334334011712
 31
0.0
  0
LINE
  5
198
330
1F
100
AcDbEntity
  8
APPARENT
100
AcDbLine
 10
244.9349536516063
 20
223.4184550265637
 30
0.0
 11
244.9349536516063
 21
223.5217400803181
 31
0.0
  0
LINE
  5
199
330
1F
100
AcDbEntity
  8
APPARENT
100
AcDbLine
 10
254.1192442342627
 20
231.7909442138675
 30
0.0
 11
254.3191577851556
 21
231.7909442138675
 31
0.0
  0
LINE
  5
19A
330
1F
100
AcDbEntity
  8
APPARENT
100
AcDbLine
 10
245.8299536516063
 20
218.8909442138674
 30
0.0
 11
250.7449536516063
 21
218.8909442138674
 31
0.0
  0
ELLIPSE
  5
19B
330
1F
100
AcDbEntity
  8
APPARENT
100
AcDbEllipse
 10
260.5149536516063
 20
223.9571206844557
 30
0.0
 11
0.3000000000000114
 21
0.0
 31
0.0
210
0.0
220
0.0
230
1.0
 40
0.0294117647059492
 41
0.0
 42
1.570796326794897
  0
LINE
  5
19C
330
1F
100
AcDbEntity
  8
APPARENT
100
AcDbLine
 10
260.8149536516063
 20
225.9747677432792
 30
0.0
 11
260.8149536516063
 21
226.2102347965239
 31
0.0
  0
LINE
  5
19D
330
1F
100
AcDbEntity
  8
APPARENT
100
AcDbLine
 10
260.5149536516063
 20
223.4259442138674
 30
0.0
 11
260.5149536516063
 21
223.9659442138674
 31
0.0
  0
LINE
  5
19E
330
1F
100
AcDbEntity
  8
APPARENT
100
AcDbLine
 10
244.3149536516063
 20
221.4744785056746
 30
0.0
 11
244.9661864409056
 21
221.4313657348797
 31
0.0
  0
LINE
  5
19F
330
1F
100
AcDbEntity
  8
APPARENT
100
AcDbLine
 10
244.9349536516063
 20
226.210234796524
 30
0.0
 11
244.9349536516063
 21
225.9747677432792
 31
0.0
  0
LINE
  5
1A0
330
1F
100
AcDbEntity
  8
APPARENT
100
AcDbLine
 10
255.0049536516063
 20
218.0409442138674
 30
0.0
 11
250.7449536516063
 21
218.0409442138674
 31
0.0
  0
LINE
  5
1A1
330
1F
100
AcDbEntity
  8
APPARENT
100
AcDbLine
 10
260.5149536516063
 20
231.7909442138674
 30
0.0
 11
256.9461301221945
 21
231.7909442138674
 31
0.0
  0
LINE
  5
1A2
330
1F
100
AcDbEntity
  8
APPARENT
100
AcDbLine
 10
260.8149536516063
 20
220.8947677432792
 30
0.0
 11
260.8149536516063
 21
218.1409442138674
 31
0.0
  0
SPLINE
  5
1A3
330
1F
100
AcDbEntity
  8
APPARENT
100
AcDbSpline
210
0.0
220
0.0
230
1.0
 70
     8
 71
     3
 72
    10
 73
     6
 74
     0
 42
0.000000001
 43
0.000001
 12
1.0
 22
0.0
 32
0.0
 13
1.0
 23
0.0
 33
0.0
 40
0.0
 40
0.0
 40
0.0
 40
0.0
 40
0.4999999110538737
 40
0.4999999110538737
 40
0.9999998221077534
 40
0.9999998221077534
 40
0.9999998221077534
 40
0.9999998221077534
 10
260.5149536516063
 20
221.4259442138674
 30
0.0
 10
260.5704752622134
 20
221.4268478007028
 30
0.0
 10
260.6259102209307
 20
221.4277513875382
 30
0.0
 10
260.7202732562075
 20
221.4295585612089
 30
0.0
 10
260.7590540615467
 20
221.4304621480443
 30
0.0
 10
260.7837208623139
 20
221.4313657339152
 30
0.0
  0
ARC
  5
1A4
330
1F
100
AcDbEntity
  8
APPARENT
100
AcDbCircle
 10
260.5149536516063
 20
218.1409442138675
 30
0.0
 40
0.0999999999999943
100
AcDbArc
 50
270.0
 51
0.0
  0
ELLIPSE
  5
1A5
330
1F
100
AcDbEntity
  8
APPARENT
100
AcDbEllipse
 10
245.2349536516062
 20
225.9747677432792
 30
0.0
 11
-0.09999999999996589
 21
0.0
 31
0.0
210
0.0
220
0.0
230
1.0
 40
0.0294117647058656
 41
0.0
 42
1.570796326794897
  0
LINE
  5
1A6
330
1F
100
AcDbEntity
  8
APPARENT
100
AcDbLine
 10
251.8661301221945
 20
231.7909442138674
 30
0.0
 11
251.6306630689498
 21
231.7909442138675
 31
0.0
  0
LINE
  5
1A7
330
1F
100
AcDbEntity
  8
APPARENT
100
AcDbLine
 10
259.9199536516062
 20
221.3409442138674
 30
0.0
 11
258.9549536516063
 21
221.3409442138674
 31
0.0
  0
LINE
  5
1A8
330
1F
100
AcDbEntity
  8
APPARENT
100
AcDbLine
 10
244.9349536516063
 20
226.4101483474168
 30
0.0
 11
244.9349536516063
 21
226.2102347965239
 31
0.0
  0
LINE
  5
1A9
330
1F
100
AcDbEntity
  8
APPARENT
100
AcDbLine
 10
244.9349536516063
 20
218.1409442138675
 30
0.0
 11
244.9349536516063
 21
217.8409442138675
 31
0.0
  0
LINE
  5
1AA
330
1F
100
AcDbEntity
  8
APPARENT
100
AcDbLine
 10
251.4307495180569
 20
231.7909442138675
 30
0.0
 11
251.3274644106018
 21
231.7909442138675
 31
0.0
  0
LINE
  5
1AB
330
1F
100
AcDbEntity
  8
APPARENT
100
AcDbLine
 10
249.3424428404273
 20
231.7909442138675
 30
0.0
 11
249.2391577851556
 21
231.7909442138675
 31
0.0
  0
ELLIPSE
  5
1AC
330
1F
100
AcDbEntity
  8
APPARENT
100
AcDbEllipse
 10
245.2349536516062
 20
225.9747677432792
 30
0.0
 11
-0.2999999999999829
 21
0.0
 31
0.0
210
0.0
220
0.0
230
1.0
 40
0.0294117647058573
 41
0.0
 42
1.570796326794897
  0
LINE
  5
1AD
330
1F
100
AcDbEntity
  8
APPARENT
100
AcDbLine
 10
258.9549536516063
 20
229.2909442138674
 30
0.0
 11
246.7949536516063
 21
229.2909442138674
 31
0.0
  0
LINE
  5
1AE
330
1F
100
AcDbEntity
  8
APPARENT
100
AcDbLine
 10
249.0392442342628
 20
231.7909442138675
 30
0.0
 11
249.2391577851556
 21
231.7909442138675
 31
0.0
  0
LINE
  5
1AF
330
1F
100
AcDbEntity
  8
APPARENT
100
AcDbLine
 10
251.3349536516063
 20
231.4909442138675
 30
0.0
 11
251.8749536516063
 21
231.4909442138675
 31
0.0
  0
SPLINE
  5
1B0
330
1F
100
AcDbEntity
  8
APPARENT
100
AcDbSpline
210
0.0
220
0.0
230
1.0
 70
     8
 71
     3
 72
     8
 73
     4
 74
     0
 42
0.000000001
 43
0.000001
 12
1.0
 22
0.0
 32
0.0
 13
1.0
 23
0.0
 33
0.0
 40
0.0
 40
0.0
 40
0.0
 40
0.0
 40
0.9999998250813928
 40
0.9999998250813928
 40
0.9999998250813928
 40
0.9999998250813928
 10
245.2349536516062
 20
226.5059442138675
 30
0.0
 10
245.1221023044236
 20
226.5077808142236
 30
0.0
 10
245.0163273718599
 20
226.5095291888005
 30
0.0
 10
244.9661873018561
 20
226.511365733916
 30
0.0
  0
LINE
  5
1B1
330
1F
100
AcDbEntity
  8
APPARENT
100
AcDbLine
 10
256.7106630689498
 20
231.7909442138675
 30
0.0
 11
256.9461301221945
 21
231.7909442138674
 31
0.0
  0
LINE
  5
1B2
330
1F
100
AcDbEntity
  8
APPARENT
100
AcDbLine
 10
260.6149536516062
 20
231.5909442138675
 30
0.0
 11
260.7270856859623
 21
231.7030762482234
 31
0.0
  0
ELLIPSE
  5
1B3
330
1F
100
AcDbEntity
  8
APPARENT
100
AcDbEllipse
 10
245.2349536516063
 20
229.0371206844557
 30
0.0
 11
-0.3000000000000114
 21
0.0
 31
0.0
210
0.0
220
0.0
230
1.0
 40
0.0294117647058545
 41
-1.570796326794897
 42
0.0
  0
LINE
  5
1B4
330
1F
100
AcDbEntity
  8
APPARENT
100
AcDbLine
 10
261.2149536516063
 20
228.4719743139809
 30
0.0
 11
260.783720862307
 21
228.5005226928552
 31
0.0
  0
ARC
  5
1B5
330
1F
100
AcDbEntity
  8
APPARENT
100
AcDbCircle
 10
260.5149536516063
 20
218.1409442138675
 30
0.0
 40
0.3000000000000114
100
AcDbArc
 50
270.0
 51
0.0
  0
LINE
  5
1B6
330
1F
100
AcDbEntity
  8
APPARENT
100
AcDbLine
 10
260.8149536516063
 20
221.1302347965239
 30
0.0
 11
260.8149536516063
 21
221.3301483474168
 31
0.0
  0
LINE
  5
1B7
330
1F
100
AcDbEntity
  8
APPARENT
100
AcDbLine
 10
258.9549536516063
 20
226.1909442138675
 30
0.0
 11
258.9549536516063
 21
229.2909442138674
 31
0.0
  0
ELLIPSE
  5
1B8
330
1F
100
AcDbEntity
  8
APPARENT
100
AcDbEllipse
 10
253.883777181018
 20
231.4909442138675
 30
0.0
 11
0.0
 21
-0.3000000000000114
 31
0.0
210
0.0
220
0.0
230
1.0
 40
0.0294117647058545
 41
-3.141592653589789
 42
-1.570796326794897
  0
LINE
  5
1B9
330
1F
100
AcDbEntity
  8
APPARENT
100
AcDbLine
 10
259.9199536516062
 20
218.8909442138674
 30
0.0
 11
259.9199536516062
 21
221.3409442138674
 31
0.0
  0
LINE
  5
1BA
330
1F
100
AcDbEntity
  8
APPARENT
100
AcDbLine
 10
245.0228216172503
 20
231.7030762482234
 30
0.0
 11
245.1349536516063
 21
231.5909442138675
 31
0.0
  0
LINE
  5
1BB
330
1F
100
AcDbEntity
  8
APPARENT
100
AcDbLine
 10
245.2349536516063
 20
231.4909442138675
 30
0.0
 11
245.2349536516063
 21
231.7909442138674
 31
0.0
  0
LINE
  5
1BC
330
1F
100
AcDbEntity
  8
APPARENT
100
AcDbLine
 10
244.9349536516063
 20
229.0371206844557
 30
0.0
 11
244.9349536516063
 21
228.801653631211
 31
0.0
  0
ELLIPSE
  5
1BD
330
1F
100
AcDbEntity
  8
APPARENT
100
AcDbEllipse
 10
245.2349536516062
 20
220.8947677432792
 30
0.0
 11
-0.09999999999996589
 21
0.0
 31
0.0
210
0.0
220
0.0
230
1.0
 40
0.0294117647058656
 41
0.0
 42
1.570796326794897
  0
LINE
  5
1BE
330
1F
100
AcDbEntity
  8
APPARENT
100
AcDbLine
 10
260.6149536516062
 20
217.8409442138675
 30
0.0
 11
260.6149536516062
 21
217.8581015013928
 31
0.0
  0
ARC
  5
1BF
330
1F
100
AcDbEntity
  8
APPARENT
100
AcDbCircle
 10
260.5149536516063
 20
231.4909442138675
 30
0.0
 40
0.3000000000000114
100
AcDbArc
 50
0.0
 51
44.99999999999616
  0
LINE
  5
1C0
330
1F
100
AcDbEntity
  8
APPARENT
100
AcDbLine
 10
256.409532130594
 20
231.7597114245681
 30
0.0
 11
256.3909140189382
 21
232.0409442138675
 31
0.0
  0
LINE
  5
1C1
330
1F
100
AcDbEntity
  8
APPARENT
100
AcDbLine
 10
260.8149536516063
 20
231.4909442138674
 30
0.0
 11
260.8149536516063
 21
229.0371206844557
 31
0.0
  0
LINE
  5
1C2
330
1F
100
AcDbEntity
  8
APPARENT
100
AcDbLine
 10
245.2349536516062
 20
221.4259442138674
 30
0.0
 11
245.2349536516062
 21
220.8859442138674
 31
0.0
  0
ELLIPSE
  5
1C3
330
1F
100
AcDbEntity
  8
APPARENT
100
AcDbEllipse
 10
245.2349536516062
 20
223.9571206844557
 30
0.0
 11
-0.09999999999996589
 21
0.0
 31
0.0
210
0.0
220
0.0
230
1.0
 40
0.0294117647058656
 41
-1.570796326794897
 42
0.0
  0
LINE
  5
1C4
330
1F
100
AcDbEntity
  8
APPARENT
100
AcDbLine
 10
260.8149536516063
 20
223.5217400803181
 30
0.0
 11
260.8149536516063
 21
223.4184550265637
 31
0.0
  0
LINE
  5
1C5
330
1F
100
AcDbEntity
  8
APPARENT
100
AcDbLine
 10
260.8149536516063
 20
221.4334334011712
 30
0.0
 11
260.8149536516063
 21
221.3301483474168
 31
0.0
  0
LINE
  5
1C6
330
1F
100
AcDbEntity
  8
APPARENT
100
AcDbLine
 10
260.8149536516063
 20
225.9747677432792
 30
0.0
 11
260.8149536516063
 21
223.9571206844557
 31
0.0
  0
LINE
  5
1C7
330
1F
100
AcDbEntity
  8
APPARENT
100
AcDbLine
 10
260.5149536516063
 20
217.8409442138674
 30
0.0
 11
260.5149536516063
 21
218.1409442138674
 31
0.0
  0
LINE
  5
1C8
330
1F
100
AcDbEntity
  8
APPARENT
100
AcDbLine
 10
258.6595113257026
 20
224.1909442138675
 30
0.0
 11
258.1980344995189
 21
224.1909442138675
 31
0.0
  0
LINE
  5
1C9
330
1F
100
AcDbEntity
  8
APPARENT
100
AcDbLine
 10
244.9349536516063
 20
223.721653631211
 30
0.0
 11
244.9349536516063
 21
223.5217400803181
 31
0.0
  0
LINE
  5
1CA
330
1F
100
AcDbEntity
  8
APPARENT
100
AcDbLine
 10
253.883777181018
 20
231.7909442138674
 30
0.0
 11
251.8661301221945
 21
231.7909442138674
 31
0.0
  0
LINE
  5
1CB
330
1F
100
AcDbEntity
  8
APPARENT
100
AcDbLine
 10
258.6595113257026
 20
226.1909442138675
 30
0.0
 11
258.1980344995189
 21
226.1909442138675
 31
0.0
  0
LINE
  5
1CC
330
1F
100
AcDbEntity
  8
APPARENT
100
AcDbLine
 10
244.3149536516063
 20
223.3774099220603
 30
0.0
 11
244.9661864409056
 21
223.4205226928552
 31
0.0
  0
LINE
  5
1CD
330
1F
100
AcDbEntity
  8
APPARENT
100
AcDbLine
 10
247.5899622816593
 20
226.1909442138675
 30
0.0
 11
247.5518728036937
 21
226.1909442138675
 31
0.0
  0
LINE
  5
1CE
330
1F
100
AcDbEntity
  8
APPARENT
100
AcDbLine
 10
247.5899622816593
 20
224.1909442138675
 30
0.0
 11
247.9959040812994
 21
224.1909442138675
 31
0.0
  0
LINE
  5
1CF
330
1F
100
AcDbEntity
  8
APPARENT
100
AcDbLine
 10
245.2349536516062
 20
218.1409442138674
 30
0.0
 11
245.2349536516062
 21
217.8409442138675
 31
0.0
  0
LINE
  5
1D0
330
1F
100
AcDbEntity
  8
APPARENT
100
AcDbLine
 10
244.9349536516063
 20
229.0371206844557
 30
0.0
 11
244.9349536516063
 21
231.4909442138675
 31
0.0
  0
LINE
  5
1D1
330
1F
100
AcDbEntity
  8
APPARENT
100
AcDbLine
 10
260.783720862307
 20
228.5005226928552
 30
0.0
 11
260.5149536515906
 21
228.505944212903
 31
0.0
  0
LINE
  5
1D2
330
1F
100
AcDbEntity
  8
APPARENT
100
AcDbLine
 10
256.5107495180569
 20
231.7909442138675
 30
0.0
 11
256.7106630689498
 21
231.7909442138675
 31
0.0
  0
LINE
  5
1D3
330
1F
100
AcDbEntity
  8
APPARENT
100
AcDbLine
 10
260.8149536516063
 20
226.4101483474168
 30
0.0
 11
260.8149536516063
 21
226.5134334011712
 31
0.0
  0
LINE
  5
1D4
330
1F
100
AcDbEntity
  8
APPARENT
100
AcDbLine
 10
260.8149536516063
 20
228.4984550265637
 30
0.0
 11
260.8149536516063
 21
228.6017400803181
 31
0.0
  0
SPLINE
  5
1D5
330
1F
100
AcDbEntity
  8
APPARENT
100
AcDbSpline
210
0.0
220
0.0
230
1.0
 70
     8
 71
     3
 72
    10
 73
     6
 74
     0
 42
0.000000001
 43
0.000001
 12
1.0
 22
0.0
 32
0.0
 13
1.0
 23
0.0
 33
0.0
 40
0.0
 40
0.0
 40
0.0
 40
0.0
 40
0.4999999110537335
 40
0.4999999110537335
 40
0.999999822107467
 40
0.999999822107467
 40
0.999999822107467
 40
0.999999822107467
 10
256.4149536516063
 20
231.4909442138675
 30
0.0
 10
256.4140500647709
 20
231.5464658244746
 30
0.0
 10
256.4131464779355
 20
231.6019007831919
 30
0.0
 10
256.4113393042648
 20
231.6962638184686
 30
0.0
 10
256.4104357174294
 20
231.7350446238079
 30
0.0
 10
256.4095321315585
 20
231.7597114245751
 30
0.0
  0
ELLIPSE
  5
1D6
330
1F
100
AcDbEntity
  8
APPARENT
100
AcDbEllipse
 10
260.5149536516063
 20
225.9747677432792
 30
0.0
 11
-0.3000000000000114
 21
0.0
 31
0.0
210
0.0
220
0.0
230
1.0
 40
0.0294117647059492
 41
1.570796326794897
 42
3.141592653589797
  0
SPLINE
  5
1D7
330
1F
100
AcDbEntity
  8
APPARENT
100
AcDbSpline
210
0.0
220
0.0
230
1.0
 70
     8
 71
     3
 72
    10
 73
     6
 74
     0
 42
0.000000001
 43
0.000001
 12
1.0
 22
0.0
 32
0.0
 13
1.0
 23
0.0
 33
0.0
 40
0.0
 40
0.0
 40
0.0
 40
0.0
 40
0.5
 40
0.5
 40
1.0
 40
1.0
 40
1.0
 40
1.0
 10
251.3349536516063
 20
231.4909442138675
 30
0.0
 10
251.3340500647709
 20
231.5464658244746
 30
0.0
 10
251.3331464779355
 20
231.6019007831919
 30
0.0
 10
251.3313393042648
 20
231.6962638184686
 30
0.0
 10
251.3304357174294
 20
231.7350446238079
 30
0.0
 10
251.329532130594
 20
231.7597114509034
 30
0.0
  0
LINE
  5
1D8
330
1F
100
AcDbEntity
  8
APPARENT
100
AcDbLine
 10
254.4203751726185
 20
231.7597114245681
 30
0.0
 11
254.4149536525707
 21
231.4909442138517
 31
0.0
  0
LINE
  5
1D9
330
1F
100
AcDbEntity
  8
APPARENT
100
AcDbLine
 10
260.8149536516063
 20
226.2102347965239
 30
0.0
 11
260.8149536516063
 21
226.4101483474168
 31
0.0
  0
ELLIPSE
  5
1DA
330
1F
100
AcDbEntity
  8
APPARENT
100
AcDbEllipse
 10
260.5149536516063
 20
229.0371206844557
 30
0.0
 11
-0.3000000000000114
 21
0.0
 31
0.0
210
0.0
220
0.0
230
1.0
 40
0.0294117647058545
 41
-3.141592653589789
 42
-1.570796326794897
  0
LINE
  5
1DB
330
1F
100
AcDbEntity
  8
APPARENT
100
AcDbLine
 10
258.9549536516063
 20
226.1909442138675
 30
0.0
 11
258.6595113257026
 21
226.1909442138675
 31
0.0
  0
LINE
  5
1DC
330
1F
100
AcDbEntity
  8
APPARENT
100
AcDbLine
 10
258.1980344995189
 20
226.1909442138675
 30
0.0
 11
258.1599450215533
 21
226.1909442138675
 31
0.0
  0
LINE
  5
1DD
330
1F
100
AcDbEntity
  8
APPARENT
100
AcDbLine
 10
260.783720862307
 20
221.4313657348797
 30
0.0
 11
261.2149536516063
 21
221.459914113754
 31
0.0
  0
ELLIPSE
  5
1DE
330
1F
100
AcDbEntity
  8
APPARENT
100
AcDbEllipse
 10
260.5149536516063
 20
223.9571206844557
 30
0.0
 11
0.09999999999996589
 21
0.0
 31
0.0
210
0.0
220
0.0
230
1.0
 40
0.0294117647058656
 41
0.0
 42
1.570796326794897
  0
LINE
  5
1DF
330
1F
100
AcDbEntity
  8
APPARENT
100
AcDbLine
 10
260.8149536516063
 20
223.9571206844557
 30
0.0
 11
260.8149536516063
 21
223.721653631211
 31
0.0
  0
LINE
  5
1E0
330
1F
100
AcDbEntity
  8
APPARENT
100
AcDbLine
 10
244.9349536516063
 20
221.3301483474168
 30
0.0
 11
244.9349536516063
 21
221.130234796524
 31
0.0
  0
LINE
  5
1E1
330
1F
100
AcDbEntity
  8
APPARENT
100
AcDbLine
 10
258.9549536516063
 20
224.1909442138675
 30
0.0
 11
258.6595113257026
 21
224.1909442138675
 31
0.0
  0
LINE
  5
1E2
330
1F
100
AcDbEntity
  8
APPARENT
100
AcDbLine
 10
245.2349536516062
 20
223.9659442138675
 30
0.0
 11
245.2349536516062
 21
223.4259442138674
 31
0.0
  0
LINE
  5
1E3
330
1F
100
AcDbEntity
  8
APPARENT
100
AcDbLine
 10
247.0903959775099
 20
224.1909442138675
 30
0.0
 11
246.7949536516062
 21
224.1909442138675
 31
0.0
  0
LINE
  5
1E4
330
1F
100
AcDbEntity
  8
APPARENT
100
AcDbLine
 10
244.9661864409056
 20
228.5005226928552
 30
0.0
 11
244.3149536516063
 21
228.4574099220603
 31
0.0
  0
LINE
  5
1E5
330
1F
100
AcDbEntity
  8
APPARENT
100
AcDbLine
 10
251.4307495180569
 20
231.7909442138675
 30
0.0
 11
251.6306630689498
 21
231.7909442138675
 31
0.0
  0
ELLIPSE
  5
1E6
330
1F
100
AcDbEntity
  8
APPARENT
100
AcDbEllipse
 10
248.803777181018
 20
231.4909442138675
 30
0.0
 11
0.0
 21
-0.3000000000000114
 31
0.0
210
0.0
220
0.0
230
1.0
 40
0.0294117647058545
 41
-3.141592653589789
 42
-1.570796326794897
  0
LINE
  5
1E7
330
1F
100
AcDbEntity
  8
APPARENT
100
AcDbLine
 10
260.8149536516063
 20
223.5217400803181
 30
0.0
 11
260.8149536516063
 21
223.721653631211
 31
0.0
  0
ELLIPSE
  5
1E8
330
1F
100
AcDbEntity
  8
APPARENT
100
AcDbEllipse
 10
260.5149536516063
 20
220.8947677432792
 30
0.0
 11
0.3000000000000114
 21
0.0
 31
0.0
210
0.0
220
0.0
230
1.0
 40
0.0294117647058545
 41
4.71238898038469
 42
6.283185307179586
  0
LINE
  5
1E9
330
1F
100
AcDbEntity
  8
APPARENT
100
AcDbLine
 10
255.0049536516063
 20
218.8909442138674
 30
0.0
 11
259.9199536516062
 21
218.8909442138674
 31
0.0
  0
LINE
  5
1EA
330
1F
100
AcDbEntity
  8
APPARENT
100
AcDbLine
 10
245.1349536516063
 20
217.8581015013928
 30
0.0
 11
245.1349536516063
 21
217.8409442138675
 31
0.0
  0
ELLIPSE
  5
1EB
330
1F
100
AcDbEntity
  8
APPARENT
100
AcDbEllipse
 10
245.2349536516062
 20
223.9571206844557
 30
0.0
 11
-0.2999999999999829
 21
0.0
 31
0.0
210
0.0
220
0.0
230
1.0
 40
0.0294117647058573
 41
-1.570796326794897
 42
0.0
  0
LINE
  5
1EC
330
1F
100
AcDbEntity
  8
APPARENT
100
AcDbLine
 10
248.803777181018
 20
231.7909442138674
 30
0.0
 11
245.2349536516063
 21
231.7909442138674
 31
0.0
  0
LINE
  5
1ED
330
1F
100
AcDbEntity
  8
APPARENT
100
AcDbLine
 10
247.5518728036937
 20
226.1909442138675
 30
0.0
 11
247.0903959775099
 21
226.1909442138675
 31
0.0
  0
LINE
  5
1EE
330
1F
100
AcDbEntity
  8
APPARENT
100
AcDbLine
 10
257.7540032219132
 20
226.1909442138675
 30
0.0
 11
258.1599450215533
 21
226.1909442138675
 31
0.0
  0
ELLIPSE
  5
1EF
330
1F
100
AcDbEntity
  8
APPARENT
100
AcDbEllipse
 10
251.8661301221945
 20
231.4909442138675
 30
0.0
 11
0.0
 21
0.2999999999999829
 31
0.0
210
0.0
220
0.0
230
1.0
 40
0.0294117647058573
 41
-1.570796326794897
 42
0.0
  0
SPLINE
  5
1F0
330
1F
100
AcDbEntity
  8
APPARENT
100
AcDbSpline
210
0.0
220
0.0
230
1.0
 70
     8
 71
     3
 72
     8
 73
     4
 74
     0
 42
0.000000001
 43
0.000001
 12
1.0
 22
0.0
 32
0.0
 13
1.0
 23
0.0
 33
0.0
 40
0.0
 40
0.0
 40
0.0
 40
0.0
 40
0.9999998250813783
 40
0.9999998250813783
 40
0.9999998250813783
 40
0.9999998250813783
 10
260.5149536516063
 20
223.4259442138674
 30
0.0
 10
260.6278049987889
 20
223.4241076135113
 30
0.0
 10
260.7335799313527
 20
223.4223592389344
 30
0.0
 10
260.7837200013565
 20
223.420522693819
 30
0.0
  0
LINE
  5
1F1
330
1F
100
AcDbEntity
  8
APPARENT
100
AcDbLine
 10
260.8149536516063
 20
217.8409442138675
 30
0.0
 11
260.8149536516063
 21
218.1409442138675
 31
0.0
  0
LINE
  5
1F2
330
1F
100
AcDbEntity
  8
APPARENT
100
AcDbLine
 10
256.9549536516063
 20
231.4909442138674
 30
0.0
 11
256.4149536516063
 21
231.4909442138675
 31
0.0
  0
LINE
  5
1F3
330
1F
100
AcDbEntity
  8
APPARENT
100
AcDbLine
 10
244.9349536516063
 20
228.801653631211
 30
0.0
 11
244.9349536516063
 21
228.6017400803181
 31
0.0
  0
SPLINE
  5
1F4
330
1F
100
AcDbEntity
  8
APPARENT
100
AcDbSpline
210
0.0
220
0.0
230
1.0
 70
     8
 71
     3
 72
     8
 73
     4
 74
     0
 42
0.000000001
 43
0.000001
 12
1.0
 22
0.0
 32
0.0
 13
1.0
 23
0.0
 33
0.0
 40
0.0
 40
0.0
 40
0.0
 40
0.0
 40
0.9999998250814435
 40
0.9999998250814435
 40
0.9999998250814435
 40
0.9999998250814435
 10
244.9661864409056
 20
223.4205226928552
 30
0.0
 10
245.0163234190506
 20
223.4223592932113
 30
0.0
 10
245.1221055690905
 20
223.4241076677882
 30
0.0
 10
245.2349536516653
 20
223.4259442129037
 30
0.0
  0
ARC
  5
1F5
330
1F
100
AcDbEntity
  8
APPARENT
100
AcDbCircle
 10
245.2349536516062
 20
218.1409442138675
 30
0.0
 40
0.0999999999999943
100
AcDbArc
 50
180.0
 51
270.0
  0
LINE
  5
1F6
330
1F
100
AcDbEntity
  8
APPARENT
100
AcDbLine
 10
260.5149536516063
 20
220.8859442138674
 30
0.0
 11
260.5149536516063
 21
221.4259442138674
 31
0.0
  0
LINE
  5
1F7
330
1F
100
AcDbEntity
  8
APPARENT
100
AcDbLine
 10
244.9349536516063
 20
220.8947677432792
 30
0.0
 11
244.9349536516063
 21
221.130234796524
 31
0.0
  0
LINE
  5
1F8
330
1F
100
AcDbEntity
  8
APPARENT
100
AcDbLine
 10
251.3295321288521
 20
231.7597114508805
 30
0.0
 11
251.3109140189383
 21
232.0409442138675
 31
0.0
  0
LINE
  5
1F9
330
1F
100
AcDbEntity
  8
APPARENT
100
AcDbLine
 10
244.9349536516063
 20
223.9571206844557
 30
0.0
 11
244.9349536516063
 21
225.9747677432792
 31
0.0
  0
LINE
  5
1FA
330
1F
100
AcDbEntity
  8
APPARENT
100
AcDbLine
 10
244.9661864409056
 20
221.4313657348797
 30
0.0
 11
245.234953651622
 21
221.4259442148319
 31
0.0
  0
LINE
  5
1FB
330
1F
100
AcDbEntity
  8
APPARENT
100
AcDbLine
 10
245.2349536516063
 20
228.5059442138675
 30
0.0
 11
245.2349536516063
 21
229.0459442138674
 31
0.0
  0
LINE
  5
1FC
330
1F
100
AcDbEntity
  8
APPARENT
100
AcDbLine
 10
260.5149536516063
 20
226.5059442138675
 30
0.0
 11
260.5149536516063
 21
225.9659442138675
 31
0.0
  0
LINE
  5
1FD
330
1F
100
AcDbEntity
  8
APPARENT
100
AcDbLine
 10
250.7449536516063
 20
217.8409442138675
 30
0.0
 11
255.0049536516063
 21
217.8409442138675
 31
0.0
  0
ARC
  5
1FE
330
1F
100
AcDbEntity
  8
APPARENT
100
AcDbCircle
 10
245.2349536516063
 20
231.4909442138675
 30
0.0
 40
0.2999999999999743
100
AcDbArc
 50
135.0000000000038
 51
180.0000000000054
  0
LINE
  5
1FF
330
1F
100
AcDbEntity
  8
APPARENT
100
AcDbLine
 10
258.1980344995189
 20
224.1909442138675
 30
0.0
 11
258.1599450215533
 21
224.1909442138675
 31
0.0
  0
LINE
  5
200
330
1F
100
AcDbEntity
  8
APPARENT
100
AcDbLine
 10
247.9959040812994
 20
226.1909442138675
 30
0.0
 11
247.9959040812994
 21
224.1909442138675
 31
0.0
  0
LINE
  5
201
330
1F
100
AcDbEntity
  8
APPARENT
100
AcDbLine
 10
245.2349536516062
 20
217.8409442138675
 30
0.0
 11
250.7449536516063
 21
217.8409442138675
 31
0.0
  0
LINE
  5
202
330
1F
100
AcDbEntity
  8
APPARENT
100
AcDbLine
 10
255.0049536516063
 20
217.8409442138675
 30
0.0
 11
260.5149536516063
 21
217.8409442138674
 31
0.0
  0
LINE
  5
203
330
1F
100
AcDbEntity
  8
APPARENT
100
AcDbLine
 10
257.7540032219132
 20
226.1909442138675
 30
0.0
 11
257.7540032219132
 21
224.1909442138675
 31
0.0
  0
LINE
  5
204
330
1F
100
AcDbEntity
  8
APPARENT
100
AcDbLine
 10
312.5099537050042
 20
229.0909442138673
 30
0.0
 11
312.9099537050042
 21
229.0909442138673
 31
0.0
  0
LINE
  5
205
330
1F
100
AcDbEntity
  8
APPARENT
100
AcDbLine
 10
319.2099537050041
 20
218.7409442138673
 30
0.0
 11
319.2099537050041
 21
229.0909442138673
 31
0.0
  0
LINE
  5
206
330
1F
100
AcDbEntity
  8
APPARENT
100
AcDbLine
 10
300.1099537050042
 20
229.0909442138673
 30
0.0
 11
300.5099537050042
 21
229.0909442138673
 31
0.0
  0
LINE
  5
207
330
1F
100
AcDbEntity
  8
APPARENT
100
AcDbLine
 10
311.7099537050042
 20
228.0909442138673
 30
0.0
 11
311.7099537050042
 21
229.0909442138673
 31
0.0
  0
LINE
  5
208
330
1F
100
AcDbEntity
  8
APPARENT
100
AcDbLine
 10
313.7099537050042
 20
228.0909442138673
 30
0.0
 11
318.2099537050041
 21
228.0909442138673
 31
0.0
  0
LINE
  5
209
330
1F
100
AcDbEntity
  8
APPARENT
100
AcDbLine
 10
297.8499537374366
 20
218.7409442138673
 30
0.0
 11
297.8499537374366
 21
218.5409442138673
 31
0.0
  0
LINE
  5
20A
330
1F
100
AcDbEntity
  8
APPARENT
100
AcDbLine
 10
311.7099537050042
 20
228.0909442138673
 30
0.0
 11
312.5099537050042
 21
228.0909442138673
 31
0.0
  0
LINE
  5
20B
330
1F
100
AcDbEntity
  8
APPARENT
100
AcDbLine
 10
294.8099537050043
 20
219.7409442138673
 30
0.0
 11
294.8099537050043
 21
228.0909442138673
 31
0.0
  0
LINE
  5
20C
330
1F
100
AcDbEntity
  8
APPARENT
100
AcDbLine
 10
313.7099537050042
 20
229.0909442138673
 30
0.0
 11
312.9099537050042
 21
229.0909442138673
 31
0.0
  0
LINE
  5
20D
330
1F
100
AcDbEntity
  8
APPARENT
100
AcDbLine
 10
318.1699537848993
 20
218.7409442138673
 30
0.0
 11
318.1699537848993
 21
218.5409442138673
 31
0.0
  0
LINE
  5
20E
330
1F
100
AcDbEntity
  8
APPARENT
100
AcDbLine
 10
313.7099537050042
 20
229.0909442138673
 30
0.0
 11
313.7099537050042
 21
228.0909442138673
 31
0.0
  0
LINE
  5
20F
330
1F
100
AcDbEntity
  8
APPARENT
100
AcDbLine
 10
299.3099537050042
 20
228.0909442138673
 30
0.0
 11
299.3099537050043
 21
229.0909442138673
 31
0.0
  0
LINE
  5
210
330
1F
100
AcDbEntity
  8
APPARENT
100
AcDbLine
 10
311.7099537050042
 20
229.0909442138673
 30
0.0
 11
301.3099537050042
 21
229.0909442138673
 31
0.0
  0
LINE
  5
211
330
1F
100
AcDbEntity
  8
APPARENT
100
AcDbLine
 10
299.3099537050043
 20
229.0909442138673
 30
0.0
 11
293.8099537050043
 21
229.0909442138673
 31
0.0
  0
LINE
  5
212
330
1F
100
AcDbEntity
  8
APPARENT
100
AcDbLine
 10
301.3099537050042
 20
228.0909442138673
 30
0.0
 11
305.8099537050042
 21
228.0909442138673
 31
0.0
  0
LINE
  5
213
330
1F
100
AcDbEntity
  8
APPARENT
100
AcDbLine
 10
299.3099537050042
 20
228.0909442138673
 30
0.0
 11
300.1099537050042
 21
228.0909442138673
 31
0.0
  0
LINE
  5
214
330
1F
100
AcDbEntity
  8
APPARENT
100
AcDbLine
 10
294.8499535657751
 20
218.7409442138673
 30
0.0
 11
294.8499535657751
 21
218.5409442138673
 31
0.0
  0
LINE
  5
215
330
1F
100
AcDbEntity
  8
APPARENT
100
AcDbLine
 10
318.2099537050041
 20
228.0909442138673
 30
0.0
 11
318.2099537050041
 21
219.7409442138673
 31
0.0
  0
LINE
  5
216
330
1F
100
AcDbEntity
  8
APPARENT
100
AcDbLine
 10
307.2099537050042
 20
228.0909442138673
 30
0.0
 11
311.7099537050042
 21
228.0909442138673
 31
0.0
  0
LINE
  5
217
330
1F
100
AcDbEntity
  8
APPARENT
100
AcDbLine
 10
305.8099537050042
 20
228.0909442138673
 30
0.0
 11
305.8099537050042
 21
219.7409442138673
 31
0.0
  0
LINE
  5
218
330
1F
100
AcDbEntity
  8
APPARENT
100
AcDbLine
 10
315.1699536132393
 20
218.7409442138673
 30
0.0
 11
315.1699536132393
 21
218.5409442138673
 31
0.0
  0
LINE
  5
219
330
1F
100
AcDbEntity
  8
APPARENT
100
AcDbLine
 10
294.8099537050043
 20
228.0909442138673
 30
0.0
 11
299.3099537050042
 21
228.0909442138673
 31
0.0
  0
LINE
  5
21A
330
1F
100
AcDbEntity
  8
APPARENT
100
AcDbLine
 10
318.2099537050041
 20
219.7409442138673
 30
0.0
 11
307.2099537050042
 21
219.7409442138673
 31
0.0
  0
LINE
  5
21B
330
1F
100
AcDbEntity
  8
APPARENT
100
AcDbLine
 10
300.5099537050042
 20
228.0909442138673
 30
0.0
 11
301.3099537050042
 21
228.0909442138673
 31
0.0
  0
LINE
  5
21C
330
1F
100
AcDbEntity
  8
APPARENT
100
AcDbLine
 10
319.2099537050041
 20
229.0909442138673
 30
0.0
 11
313.7099537050042
 21
229.0909442138673
 31
0.0
  0
LINE
  5
21D
330
1F
100
AcDbEntity
  8
APPARENT
100
AcDbLine
 10
319.2099537050041
 20
218.7409442138673
 30
0.0
 11
293.8099537050043
 21
218.7409442138673
 31
0.0
  0
LINE
  5
21E
330
1F
100
AcDbEntity
  8
APPARENT
100
AcDbLine
 10
301.3099537050042
 20
229.0909442138673
 30
0.0
 11
300.5099537050042
 21
229.0909442138673
 31
0.0
  0
LINE
  5
21F
330
1F
100
AcDbEntity
  8
APPARENT
100
AcDbLine
 10
301.3099537050042
 20
229.0909442138673
 30
0.0
 11
301.3099537050042
 21
228.0909442138673
 31
0.0
  0
LINE
  5
220
330
1F
100
AcDbEntity
  8
APPARENT
100
AcDbLine
 10
312.5099537050042
 20
229.0909442138673
 30
0.0
 11
311.7099537050042
 21
229.0909442138673
 31
0.0
  0
LINE
  5
221
330
1F
100
AcDbEntity
  8
APPARENT
100
AcDbLine
 10
293.8099537050043
 20
218.7409442138673
 30
0.0
 11
293.8099537050043
 21
229.0909442138673
 31
0.0
  0
LINE
  5
222
330
1F
100
AcDbEntity
  8
APPARENT
100
AcDbLine
 10
300.1099537050042
 20
229.0909442138673
 30
0.0
 11
299.3099537050042
 21
229.0909442138673
 31
0.0
  0
LINE
  5
223
330
1F
100
AcDbEntity
  8
APPARENT
100
AcDbLine
 10
307.2099537050042
 20
219.7409442138673
 30
0.0
 11
307.2099537050042
 21
228.0909442138673
 31
0.0
  0
LINE
  5
224
330
1F
100
AcDbEntity
  8
APPARENT
100
AcDbLine
 10
312.9099537050042
 20
228.0909442138673
 30
0.0
 11
313.7099537050042
 21
228.0909442138673
 31
0.0
  0
LINE
  5
225
330
1F
100
AcDbEntity
  8
APPARENT
100
AcDbLine
 10
305.8099537050042
 20
219.7409442138673
 30
0.0
 11
294.8099537050043
 21
219.7409442138673
 31
0.0
  0
LINE
  5
226
330
1F
100
AcDbEntity
  8
APPARENT
100
AcDbLine
 10
314.3599536456721
 20
218.7409442138673
 30
0.0
 11
314.3599536456721
 21
218.5409442138673
 31
0.0
  0
LINE
  5
227
330
1F
100
AcDbEntity
  8
APPARENT
100
AcDbLine
 10
301.659953645672
 20
218.7409442138673
 30
0.0
 11
301.659953645672
 21
218.5409442138673
 31
0.0
  0
LINE
  5
228
330
1F
100
AcDbEntity
  8
APPARENT
100
AcDbLine
 10
308.8199536456721
 20
218.7409442138673
 30
0.0
 11
308.8199536456721
 21
218.5409442138673
 31
0.0
  0
LINE
  5
229
330
1F
100
AcDbEntity
  8
APPARENT
100
AcDbLine
 10
303.7399536456721
 20
218.7409442138673
 30
0.0
 11
303.7399536456721
 21
218.5409442138673
 31
0.0
  0
LINE
  5
22A
330
1F
100
AcDbEntity
  8
APPARENT
100
AcDbLine
 10
306.7399536456721
 20
218.7409442138673
 30
0.0
 11
306.7399536456721
 21
218.5409442138673
 31
0.0
  0
LINE
  5
22B
330
1F
100
AcDbEntity
  8
APPARENT
100
AcDbLine
 10
311.8199536456721
 20
218.7409442138673
 30
0.0
 11
311.8199536456721
 21
218.5409442138673
 31
0.0
  0
LINE
  5
22C
330
1F
100
AcDbEntity
  8
APPARENT
100
AcDbLine
 10
301.1999536456721
 20
218.7409442138673
 30
0.0
 11
301.1999536456721
 21
218.5409442138673
 31
0.0
  0
LINE
  5
22D
330
1F
100
AcDbEntity
  8
APPARENT
100
AcDbLine
 10
298.659953645672
 20
218.7409442138673
 30
0.0
 11
298.659953645672
 21
218.5409442138673
 31
0.0
  0
LINE
  5
22E
330
1F
100
AcDbEntity
  8
APPARENT
100
AcDbLine
 10
311.3599536456721
 20
218.7409442138673
 30
0.0
 11
311.3599536456721
 21
218.5409442138673
 31
0.0
  0
LINE
  5
22F
330
1F
100
AcDbEntity
  8
APPARENT
100
AcDbLine
 10
309.279953645672
 20
218.7409442138673
 30
0.0
 11
309.279953645672
 21
218.5409442138673
 31
0.0
  0
LINE
  5
230
330
1F
100
AcDbEntity
  8
APPARENT
100
AcDbLine
 10
299.1199536456721
 20
218.7409442138673
 30
0.0
 11
299.1199536456721
 21
218.5409442138673
 31
0.0
  0
LINE
  5
231
330
1F
100
AcDbEntity
  8
APPARENT
100
AcDbLine
 10
304.1999536456721
 20
218.7409442138673
 30
0.0
 11
304.1999536456721
 21
218.5409442138673
 31
0.0
  0
LINE
  5
232
330
1F
100
AcDbEntity
  8
APPARENT
100
AcDbLine
 10
306.279953645672
 20
218.7409442138673
 30
0.0
 11
306.279953645672
 21
218.5409442138673
 31
0.0
  0
LINE
  5
233
330
1F
100
AcDbEntity
  8
APPARENT
100
AcDbLine
 10
313.899953645672
 20
218.7409442138673
 30
0.0
 11
313.899953645672
 21
218.5409442138673
 31
0.0
  0
LINE
  5
234
330
1F
100
AcDbEntity
  8
APPARENT
100
AcDbLine
 10
267.1381360704432
 20
231.9909442138663
 30
0.0
 11
268.8899536516062
 21
231.9909442138663
 31
0.0
  0
LINE
  5
235
330
1F
100
AcDbEntity
  8
APPARENT
100
AcDbLine
 10
270.8899536516062
 20
231.9909442138663
 30
0.0
 11
272.6417712327691
 21
231.9909442138663
 31
0.0
  0
LINE
  5
236
330
1F
100
AcDbEntity
  8
APPARENT
100
AcDbLine
 10
269.8899536516062
 20
220.9909442138663
 30
0.0
 11
268.8899536516062
 21
220.9909442138663
 31
0.0
  0
ARC
  5
237
330
1F
100
AcDbEntity
  8
APPARENT
100
AcDbCircle
 10
269.8899536516062
 20
226.4909442138663
 30
0.0
 40
1.550000000000011
100
AcDbArc
 50
270.0
 51
90.0
  0
ARC
  5
238
330
1F
100
AcDbEntity
  8
APPARENT
100
AcDbCircle
 10
269.8899536516062
 20
226.4909442138663
 30
0.0
 40
1.550000000000011
100
AcDbArc
 50
90.0
 51
270.0
  0
ARC
  5
239
330
1F
100
AcDbEntity
  8
APPARENT
100
AcDbCircle
 10
269.8899536516062
 20
226.4909442138663
 30
0.0
 40
4.554145188433012
100
AcDbArc
 50
270.0
 51
90.0
  0
ARC
  5
23A
330
1F
100
AcDbEntity
  8
APPARENT
100
AcDbCircle
 10
269.8899536516062
 20
226.4909442138663
 30
0.0
 40
0.4250000000000114
100
AcDbArc
 50
270.0
 51
90.0
  0
ARC
  5
23B
330
1F
100
AcDbEntity
  8
APPARENT
100
AcDbCircle
 10
269.8899536516062
 20
226.4909442138663
 30
0.0
 40
0.4250000000000114
100
AcDbArc
 50
90.0
 51
270.0
  0
LINE
  5
23C
330
1F
100
AcDbEntity
  8
APPARENT
100
AcDbLine
 10
264.3899536516062
 20
223.7391266327033
 30
0.0
 11
264.3899536516062
 21
229.2427617950293
 31
0.0
  0
ARC
  5
23D
330
1F
100
AcDbEntity
  8
APPARENT
100
AcDbCircle
 10
269.8899536516062
 20
226.4909442138663
 30
0.0
 40
4.800000000000011
100
AcDbArc
 50
90.0
 51
270.0
  0
ARC
  5
23E
330
1F
100
AcDbEntity
  8
APPARENT
100
AcDbCircle
 10
269.8899536516062
 20
226.4909442138663
 30
0.0
 40
6.150000000000006
100
AcDbArc
 50
270.0
 51
333.4198032283091
  0
ARC
  5
23F
330
1F
100
AcDbEntity
  8
APPARENT
100
AcDbCircle
 10
269.8899536516062
 20
226.4909442138663
 30
0.0
 40
4.800000000000011
100
AcDbArc
 50
270.0
 51
90.0
  0
LINE
  5
240
330
1F
100
AcDbEntity
  8
APPARENT
100
AcDbLine
 10
269.8899536516062
 20
220.9909442138663
 30
0.0
 11
270.8899536516062
 21
220.9909442138663
 31
0.0
  0
ARC
  5
241
330
1F
100
AcDbEntity
  8
APPARENT
100
AcDbCircle
 10
269.8899536516062
 20
226.4909442138663
 30
0.0
 40
4.150000000000006
100
AcDbArc
 50
90.0
 51
270.0
  0
ARC
  5
242
330
1F
100
AcDbEntity
  8
APPARENT
100
AcDbCircle
 10
269.8899536516062
 20
226.4909442138663
 30
0.0
 40
4.554145188433012
100
AcDbArc
 50
90.0
 51
270.0
  0
ARC
  5
243
330
1F
100
AcDbEntity
  8
APPARENT
100
AcDbCircle
 10
269.8899536516062
 20
226.4909442138663
 30
0.0
 40
4.150000000000006
100
AcDbArc
 50
270.0
 51
90.0
  0
LINE
  5
244
330
1F
100
AcDbEntity
  8
APPARENT
100
AcDbLine
 10
269.8899536516062
 20
231.9909442138663
 30
0.0
 11
268.8899536516062
 21
231.9909442138663
 31
0.0
  0
LINE
  5
245
330
1F
100
AcDbEntity
  8
APPARENT
100
AcDbLine
 10
275.3899536516062
 20
229.2427617950293
 30
0.0
 11
275.3899536516062
 21
223.7391266327033
 31
0.0
  0
ARC
  5
246
330
1F
100
AcDbEntity
  8
APPARENT
100
AcDbCircle
 10
269.8899536516062
 20
226.4909442138663
 30
0.0
 40
6.150000000000015
100
AcDbArc
 50
206.5801967716909
 51
270.0
  0
LINE
  5
247
330
1F
100
AcDbEntity
  8
APPARENT
100
AcDbLine
 10
269.8899536516062
 20
231.9909442138663
 30
0.0
 11
270.8899536516062
 21
231.9909442138663
 31
0.0
  0
ARC
  5
248
330
1F
100
AcDbEntity
  8
APPARENT
100
AcDbCircle
 10
269.8899536516062
 20
226.4909442138663
 30
0.0
 40
6.150000000000015
100
AcDbArc
 50
116.5801967716909
 51
153.4198032283091
  0
ARC
  5
249
330
1F
100
AcDbEntity
  8
APPARENT
100
AcDbCircle
 10
269.8899536516062
 20
226.4909442138663
 30
0.0
 40
6.150000000000015
100
AcDbArc
 50
26.58019677169088
 51
63.41980322830913
  0
LINE
  5
24A
330
1F
100
AcDbEntity
  8
APPARENT
100
AcDbLine
 10
268.8899536516062
 20
231.9909442138663
 30
0.0
 11
268.8899536516062
 21
231.1856220515885
 31
0.0
  0
LINE
  5
24B
330
1F
100
AcDbEntity
  8
APPARENT
100
AcDbLine
 10
270.8899536516062
 20
221.7962663761441
 30
0.0
 11
270.8899536516062
 21
220.9909442138663
 31
0.0
  0
LINE
  5
24C
330
1F
100
AcDbEntity
  8
APPARENT
100
AcDbLine
 10
270.8899536516062
 20
231.9909442138663
 30
0.0
 11
270.8899536516062
 21
231.1856220515885
 31
0.0
  0
LINE
  5
24D
330
1F
100
AcDbEntity
  8
APPARENT
100
AcDbLine
 10
268.8899536516062
 20
221.7962663761441
 30
0.0
 11
268.8899536516062
 21
220.9909442138663
 31
0.0
  0
LINE
  5
24E
330
1F
100
AcDbEntity
  8
APPARENT
100
AcDbLine
 10
282.6581360704429
 20
231.9909442138663
 30
0.0
 11
284.4099536516059
 21
231.9909442138663
 31
0.0
  0
LINE
  5
24F
330
1F
100
AcDbEntity
  8
APPARENT
100
AcDbLine
 10
286.4099536516059
 20
231.9909442138663
 30
0.0
 11
288.1617712327688
 21
231.9909442138663
 31
0.0
  0
LINE
  5
250
330
1F
100
AcDbEntity
  8
APPARENT
100
AcDbLine
 10
285.4099536516059
 20
220.9909442138663
 30
0.0
 11
284.4099536516059
 21
220.9909442138663
 31
0.0
  0
ARC
  5
251
330
1F
100
AcDbEntity
  8
APPARENT
100
AcDbCircle
 10
285.4099536516059
 20
226.4909442138663
 30
0.0
 40
1.550000000000011
100
AcDbArc
 50
270.0
 51
90.0
  0
ARC
  5
252
330
1F
100
AcDbEntity
  8
APPARENT
100
AcDbCircle
 10
285.4099536516059
 20
226.4909442138663
 30
0.0
 40
1.550000000000011
100
AcDbArc
 50
90.0
 51
270.0
  0
ARC
  5
253
330
1F
100
AcDbEntity
  8
APPARENT
100
AcDbCircle
 10
285.4099536516059
 20
226.4909442138663
 30
0.0
 40
4.554145188433012
100
AcDbArc
 50
270.0
 51
90.0
  0
ARC
  5
254
330
1F
100
AcDbEntity
  8
APPARENT
100
AcDbCircle
 10
285.4099536516059
 20
226.4909442138663
 30
0.0
 40
0.4250000000000114
100
AcDbArc
 50
270.0
 51
90.0
  0
ARC
  5
255
330
1F
100
AcDbEntity
  8
APPARENT
100
AcDbCircle
 10
285.4099536516059
 20
226.4909442138663
 30
0.0
 40
0.4250000000000114
100
AcDbArc
 50
90.0
 51
270.0
  0
LINE
  5
256
330
1F
100
AcDbEntity
  8
APPARENT
100
AcDbLine
 10
279.9099536516059
 20
223.7391266327033
 30
0.0
 11
279.9099536516059
 21
229.2427617950293
 31
0.0
  0
ARC
  5
257
330
1F
100
AcDbEntity
  8
APPARENT
100
AcDbCircle
 10
285.4099536516059
 20
226.4909442138663
 30
0.0
 40
4.800000000000011
100
AcDbArc
 50
90.0
 51
270.0
  0
ARC
  5
258
330
1F
100
AcDbEntity
  8
APPARENT
100
AcDbCircle
 10
285.4099536516059
 20
226.4909442138663
 30
0.0
 40
6.150000000000006
100
AcDbArc
 50
270.0
 51
333.4198032283091
  0
ARC
  5
259
330
1F
100
AcDbEntity
  8
APPARENT
100
AcDbCircle
 10
285.4099536516059
 20
226.4909442138663
 30
0.0
 40
4.800000000000011
100
AcDbArc
 50
270.0
 51
90.0
  0
LINE
  5
25A
330
1F
100
AcDbEntity
  8
APPARENT
100
AcDbLine
 10
285.4099536516059
 20
220.9909442138663
 30
0.0
 11
286.4099536516059
 21
220.9909442138663
 31
0.0
  0
ARC
  5
25B
330
1F
100
AcDbEntity
  8
APPARENT
100
AcDbCircle
 10
285.4099536516059
 20
226.4909442138663
 30
0.0
 40
4.150000000000006
100
AcDbArc
 50
90.0
 51
270.0
  0
ARC
  5
25C
330
1F
100
AcDbEntity
  8
APPARENT
100
AcDbCircle
 10
285.4099536516059
 20
226.4909442138663
 30
0.0
 40
4.554145188433012
100
AcDbArc
 50
90.0
 51
270.0
  0
ARC
  5
25D
330
1F
100
AcDbEntity
  8
APPARENT
100
AcDbCircle
 10
285.4099536516059
 20
226.4909442138663
 30
0.0
 40
4.150000000000006
100
AcDbArc
 50
270.0
 51
90.0
  0
LINE
  5
25E
330
1F
100
AcDbEntity
  8
APPARENT
100
AcDbLine
 10
285.4099536516059
 20
231.9909442138663
 30
0.0
 11
284.4099536516059
 21
231.9909442138663
 31
0.0
  0
LINE
  5
25F
330
1F
100
AcDbEntity
  8
APPARENT
100
AcDbLine
 10
290.9099536516059
 20
229.2427617950293
 30
0.0
 11
290.9099536516059
 21
223.7391266327033
 31
0.0
  0
ARC
  5
260
330
1F
100
AcDbEntity
  8
APPARENT
100
AcDbCircle
 10
285.4099536516059
 20
226.4909442138663
 30
0.0
 40
6.150000000000015
100
AcDbArc
 50
206.5801967716909
 51
270.0
  0
LINE
  5
261
330
1F
100
AcDbEntity
  8
APPARENT
100
AcDbLine
 10
285.4099536516059
 20
231.9909442138663
 30
0.0
 11
286.4099536516059
 21
231.9909442138663
 31
0.0
  0
ARC
  5
262
330
1F
100
AcDbEntity
  8
APPARENT
100
AcDbCircle
 10
285.4099536516059
 20
226.4909442138663
 30
0.0
 40
6.150000000000015
100
AcDbArc
 50
116.5801967716909
 51
153.4198032283091
  0
ARC
  5
263
330
1F
100
AcDbEntity
  8
APPARENT
100
AcDbCircle
 10
285.4099536516059
 20
226.4909442138663
 30
0.0
 40
6.150000000000015
100
AcDbArc
 50
26.58019677169088
 51
63.41980322830913
  0
LINE
  5
264
330
1F
100
AcDbEntity
  8
APPARENT
100
AcDbLine
 10
286.4099536516059
 20
221.7962663761441
 30
0.0
 11
286.4099536516059
 21
220.9909442138663
 31
0.0
  0
LINE
  5
265
330
1F
100
AcDbEntity
  8
APPARENT
100
AcDbLine
 10
284.4099536516059
 20
221.7962663761441
 30
0.0
 11
284.4099536516059
 21
220.9909442138663
 31
0.0
  0
LINE
  5
266
330
1F
100
AcDbEntity
  8
APPARENT
100
AcDbLine
 10
286.4099536516059
 20
231.9909442138663
 30
0.0
 11
286.4099536516059
 21
231.1856220515885
 31
0.0
  0
LINE
  5
267
330
1F
100
AcDbEntity
  8
APPARENT
100
AcDbLine
 10
284.4099536516059
 20
231.9909442138663
 30
0.0
 11
284.4099536516059
 21
231.1856220515885
 31
0.0
  0
LINE
  5
268
330
1F
100
AcDbEntity
  8
APPARENT
100
AcDbLine
 10
268.3736394906862
 20
248.0712694739301
 30
0.0
 11
267.8523992563112
 21
246.5148729895551
 31
0.0
  0
SPLINE
  5
269
330
1F
100
AcDbEntity
  8
APPARENT
100
AcDbSpline
210
0.0
220
0.0
230
1.0
 70
     8
 71
     2
 72
     6
 73
     3
 74
     0
 42
0.000000001
 43
0.000001
 12
1.0
 22
0.0
 32
0.0
 13
1.0
 23
0.0
 33
0.0
 40
0.0
 40
0.0
 40
0.0
 40
1.0
 40
1.0
 40
1.0
 10
267.3616306781768
 20
215.6596355438235
 30
0.0
 10
267.2719089984893
 20
215.5424480438235
 30
0.0
 10
267.2719089984893
 20
214.8551921844485
 30
0.0
  0
SPLINE
  5
26A
330
1F
100
AcDbEntity
  8
APPARENT
100
AcDbSpline
210
0.0
220
0.0
230
1.0
 70
     8
 71
     2
 72
     6
 73
     3
 74
     0
 42
0.000000001
 43
0.000001
 12
1.0
 22
0.0
 32
0.0
 13
1.0
 23
0.0
 33
0.0
 40
0.0
 40
0.0
 40
0.0
 40
1.0
 40
1.0
 40
1.0
 10
268.6854832172393
 20
215.2104167938235
 30
0.0
 10
268.6854832172393
 20
215.5778484344485
 30
0.0
 10
268.5615818500518
 20
215.677335739136
 30
0.0
  0
LINE
  5
26B
330
1F
100
AcDbEntity
  8
APPARENT
100
AcDbLine
 10
265.0508855844362
 20
246.5148729895551
 30
0.0
 11
264.8775457406862
 21
246.9848436926801
 31
0.0
  0
LINE
  5
26C
330
1F
100
AcDbEntity
  8
APPARENT
100
AcDbLine
 10
267.5191473031862
 20
247.2241015051801
 30
0.0
 11
267.6058172250612
 21
246.9592089270551
 31
0.0
  0
LINE
  5
26D
330
1F
100
AcDbEntity
  8
APPARENT
100
AcDbLine
 10
272.4715398813112
 20
247.6342577551801
 30
0.0
 11
272.2444891000612
 21
247.6342577551801
 31
0.0
  0
LINE
  5
26E
330
1F
100
AcDbEntity
  8
APPARENT
100
AcDbLine
 10
289.6099536516059
 20
213.7431316375735
 30
0.0
 11
286.9876487851142
 21
213.7431316375735
 31
0.0
  0
LINE
  5
26F
330
1F
100
AcDbEntity
  8
APPARENT
100
AcDbLine
 10
273.3016180063112
 20
246.6821093176801
 30
0.0
 11
273.2967351938112
 21
246.6845507239301
 31
0.0
  0
LINE
  5
270
330
1F
100
AcDbEntity
  8
APPARENT
100
AcDbLine
 10
286.7818426156862
 20
247.2570604895551
 30
0.0
 11
286.7818426156862
 21
247.1728319739301
 31
0.0
  0
SPLINE
  5
271
330
1F
100
AcDbEntity
  8
APPARENT
100
AcDbSpline
210
0.0
220
0.0
230
1.0
 70
     8
 71
     2
 72
     6
 73
     3
 74
     0
 42
0.000000001
 43
0.000001
 12
1.0
 22
0.0
 32
0.0
 13
1.0
 23
0.0
 33
0.0
 40
0.0
 40
0.0
 40
0.0
 40
1.0
 40
1.0
 40
1.0
 10
287.7095769906862
 20
247.9162401770551
 30
0.0
 10
287.2896551156862
 20
247.9162401770551
 30
0.0
 10
287.2896551156862
 20
247.6794237708051
 30
0.0
  0
SPLINE
  5
272
330
1F
100
AcDbEntity
  8
APPARENT
100
AcDbSpline
210
0.0
220
0.0
230
1.0
 70
     8
 71
     2
 72
     6
 73
     3
 74
     0
 42
0.000000001
 43
0.000001
 12
1.0
 22
0.0
 32
0.0
 13
1.0
 23
0.0
 33
0.0
 40
0.0
 40
0.0
 40
0.0
 40
1.0
 40
1.0
 40
1.0
 10
272.4178289438112
 20
246.9921679114301
 30
0.0
 10
272.4178289438112
 20
246.8029589270551
 30
0.0
 10
272.4959539438112
 20
246.7419237708051
 30
0.0
  0
LINE
  5
273
330
1F
100
AcDbEntity
  8
APPARENT
100
AcDbLine
 10
278.6861394906862
 20
248.4924120520551
 30
0.0
 11
278.6885808969362
 21
248.5595507239301
 31
0.0
  0
LINE
  5
274
330
1F
100
AcDbEntity
  8
APPARENT
100
AcDbLine
 10
270.6929754281862
 20
248.5033983801801
 30
0.0
 11
269.9752019906862
 21
248.5033983801801
 31
0.0
  0
LINE
  5
275
330
1F
100
AcDbEntity
  8
APPARENT
100
AcDbLine
 10
265.5294012094362
 20
248.0712694739301
 30
0.0
 11
265.7576726938112
 21
248.0712694739301
 31
0.0
  0
LINE
  5
276
330
1F
100
AcDbEntity
  8
APPARENT
100
AcDbLine
 10
320.6099536516058
 20
215.7431316375735
 30
0.0
 11
320.6099536516058
 21
217.811148316754
 31
0.0
  0
LINE
  5
277
330
1F
100
AcDbEntity
  8
APPARENT
100
AcDbLine
 10
253.4523730278015
 20
247.4672298431399
 30
0.0
 11
254.4325976371765
 21
247.4672298431399
 31
0.0
  0
LINE
  5
278
330
1F
100
AcDbEntity
  8
APPARENT
100
AcDbLine
 10
264.4820379281862
 20
248.7365526770551
 30
0.0
 11
265.3121160531862
 21
246.5148729895551
 31
0.0
  0
LINE
  5
279
330
1F
100
AcDbEntity
  8
APPARENT
100
AcDbLine
 10
273.2833074594362
 20
247.3022265051801
 30
0.0
 11
273.2833074594362
 21
247.4914354895551
 31
0.0
  0
LINE
  5
27A
330
1F
100
AcDbEntity
  8
APPARENT
100
AcDbLine
 10
286.7525457406862
 20
248.1188768958051
 30
0.0
 11
286.7537664438112
 21
248.0578417395551
 31
0.0
  0
LINE
  5
27B
330
1F
100
AcDbEntity
  8
APPARENT
100
AcDbLine
 10
268.5628484750612
 20
248.7365526770551
 30
0.0
 11
268.7911199594362
 21
248.7365526770551
 31
0.0
  0
SPLINE
  5
27C
330
1F
100
AcDbEntity
  8
APPARENT
100
AcDbSpline
210
0.0
220
0.0
230
1.0
 70
     8
 71
     2
 72
     6
 73
     3
 74
     0
 42
0.000000001
 43
0.000001
 12
1.0
 22
0.0
 32
0.0
 13
1.0
 23
0.0
 33
0.0
 40
0.0
 40
0.0
 40
0.0
 40
1.0
 40
1.0
 40
1.0
 10
299.3764011859893
 20
213.9311199188235
 30
0.0
 10
299.9049656391143
 20
213.9311199188235
 30
0.0
 10
299.9946873188018
 20
214.0483074188235
 30
0.0
  0
LINE
  5
27D
330
1F
100
AcDbEntity
  8
APPARENT
100
AcDbLine
 10
286.9876487851142
 20
214.1431316375735
 30
0.0
 11
289.6099536516059
 21
214.1431316375735
 31
0.0
  0
SPLINE
  5
27E
330
1F
100
AcDbEntity
  8
APPARENT
100
AcDbSpline
210
0.0
220
0.0
230
1.0
 70
     8
 71
     2
 72
     6
 73
     3
 74
     0
 42
0.000000001
 43
0.000001
 12
1.0
 22
0.0
 32
0.0
 13
1.0
 23
0.0
 33
0.0
 40
0.0
 40
0.0
 40
0.0
 40
1.0
 40
1.0
 40
1.0
 10
256.7739062309265
 20
247.8908138275149
 30
0.0
 10
256.7739062309265
 20
248.4962825775149
 30
0.0
 10
256.6738085746765
 20
248.6574153900149
 30
0.0
  0
LINE
  5
27F
330
1F
100
AcDbEntity
  8
APPARENT
100
AcDbLine
 10
280.7222723031862
 20
246.9848436926801
 30
0.0
 11
279.5980047250612
 21
246.9848436926801
 31
0.0
  0
SPLINE
  5
280
330
1F
100
AcDbEntity
  8
APPARENT
100
AcDbSpline
210
0.0
220
0.0
230
1.0
 70
     8
 71
     2
 72
     6
 73
     3
 74
     0
 42
0.000000001
 43
0.000001
 12
1.0
 22
0.0
 32
0.0
 13
1.0
 23
0.0
 33
0.0
 40
0.0
 40
0.0
 40
0.0
 40
1.0
 40
1.0
 40
1.0
 10
272.8487371469362
 20
248.0932421301801
 30
0.0
 10
273.2381414438112
 20
248.0932421301801
 30
0.0
 10
273.3748601938112
 20
247.9784960364301
 30
0.0
  0
SPLINE
  5
281
330
1F
100
AcDbEntity
  8
APPARENT
100
AcDbSpline
210
0.0
220
0.0
230
1.0
 70
     8
 71
     2
 72
     6
 73
     3
 74
     0
 42
0.000000001
 43
0.000001
 12
1.0
 22
0.0
 32
0.0
 13
1.0
 23
0.0
 33
0.0
 40
0.0
 40
0.0
 40
0.0
 40
1.0
 40
1.0
 40
1.0
 10
290.6587957406862
 20
246.4916796301801
 30
0.0
 10
290.3011297250612
 20
246.4916796301801
 30
0.0
 10
290.1699041391237
 20
246.6656298254926
 30
0.0
  0
LINE
  5
282
330
1F
100
AcDbEntity
  8
APPARENT
100
AcDbLine
 10
286.5328191781862
 20
247.2570604895551
 30
0.0
 11
286.7818426156862
 21
247.2570604895551
 31
0.0
  0
SPLINE
  5
283
330
1F
100
AcDbEntity
  8
APPARENT
100
AcDbSpline
210
0.0
220
0.0
230
1.0
 70
     8
 71
     2
 72
     6
 73
     3
 74
     0
 42
0.000000001
 43
0.000001
 12
1.0
 22
0.0
 32
0.0
 13
1.0
 23
0.0
 33
0.0
 40
0.0
 40
0.0
 40
0.0
 40
1.0
 40
1.0
 40
1.0
 10
298.5841648578643
 20
213.903654098511
 30
0.0
 10
298.4303562641143
 20
214.0873699188235
 30
0.0
 10
298.4303562641143
 20
214.8551921844485
 30
0.0
  0
LINE
  5
284
330
1F
100
AcDbEntity
  8
APPARENT
100
AcDbLine
 10
251.4943652153015
 20
247.1290950775149
 30
0.0
 11
251.5004687309265
 21
247.1290950775149
 31
0.0
  0
SPLINE
  5
285
330
1F
100
AcDbEntity
  8
APPARENT
100
AcDbSpline
210
0.0
220
0.0
230
1.0
 70
     8
 71
     2
 72
     6
 73
     3
 74
     0
 42
0.000000001
 43
0.000001
 12
1.0
 22
0.0
 32
0.0
 13
1.0
 23
0.0
 33
0.0
 40
0.0
 40
0.0
 40
0.0
 40
1.0
 40
1.0
 40
1.0
 10
269.4990818500518
 20
213.980558395386
 30
0.0
 10
269.5692722797393
 20
213.9091472625735
 30
0.0
 10
269.7731297016143
 20
213.9091472625735
 30
0.0
  0
SPLINE
  5
286
330
1F
100
AcDbEntity
  8
APPARENT
100
AcDbSpline
210
0.0
220
0.0
230
1.0
 70
     8
 71
     2
 72
     6
 73
     3
 74
     0
 42
0.000000001
 43
0.000001
 12
1.0
 22
0.0
 32
0.0
 13
1.0
 23
0.0
 33
0.0
 40
0.0
 40
0.0
 40
0.0
 40
1.0
 40
1.0
 40
1.0
 10
271.1385320688112
 20
247.8869433020551
 30
0.0
 10
271.2740301156862
 20
248.1066698645551
 30
0.0
 10
271.5853094125612
 20
248.1066698645551
 30
0.0
  0
SPLINE
  5
287
330
1F
100
AcDbEntity
  8
APPARENT
100
AcDbSpline
210
0.0
220
0.0
230
1.0
 70
     8
 71
     2
 72
     6
 73
     3
 74
     0
 42
0.000000001
 43
0.000001
 12
1.0
 22
0.0
 32
0.0
 13
1.0
 23
0.0
 33
0.0
 40
0.0
 40
0.0
 40
0.0
 40
1.0
 40
1.0
 40
1.0
 10
248.9491991996765
 20
247.0662288665774
 30
0.0
 10
249.0590624809265
 20
247.1364192962649
 30
0.0
 10
249.0590624809265
 20
247.4184017181399
 30
0.0
  0
LINE
  5
288
330
1F
100
AcDbEntity
  8
APPARENT
100
AcDbLine
 10
276.7427801156862
 20
248.5363573645551
 30
0.0
 11
276.7452215219362
 21
248.4765429114301
 31
0.0
  0
LINE
  5
289
330
1F
100
AcDbEntity
  8
APPARENT
100
AcDbLine
 10
302.9628269672393
 20
214.2948894500735
 30
0.0
 11
303.1740086078643
 21
214.2948894500735
 31
0.0
  0
LINE
  5
28A
330
1F
100
AcDbEntity
  8
APPARENT
100
AcDbLine
 10
245.1930956840515
 20
249.0297298431399
 30
0.0
 11
246.0231738090515
 21
246.8080501556399
 31
0.0
  0
ARC
  5
28B
330
1F
100
AcDbEntity
  8
APPARENT
100
AcDbCircle
 10
319.0099536516059
 20
215.7431316375735
 30
0.0
 40
1.599999999999994
100
AcDbArc
 50
270.0
 51
0.0
  0
LINE
  5
28C
330
1F
100
AcDbEntity
  8
APPARENT
100
AcDbLine
 10
269.4288914203643
 20
215.2995281219485
 30
0.0
 11
269.4288914203643
 21
214.2643718719485
 31
0.0
  0
LINE
  5
28D
330
1F
100
AcDbEntity
  8
APPARENT
100
AcDbLine
 10
271.5651218891143
 20
214.2948894500735
 30
0.0
 11
271.7763035297393
 21
214.2948894500735
 31
0.0
  0
LINE
  5
28E
330
1F
100
AcDbEntity
  8
APPARENT
100
AcDbLine
 10
277.8426336313112
 20
246.5148729895551
 30
0.0
 11
277.5923894906862
 21
246.5148729895551
 31
0.0
  0
LINE
  5
28F
330
1F
100
AcDbEntity
  8
APPARENT
100
AcDbLine
 10
291.1531805063112
 20
248.7365526770551
 30
0.0
 11
291.3814519906862
 21
248.7365526770551
 31
0.0
  0
LINE
  5
290
330
1F
100
AcDbEntity
  8
APPARENT
100
AcDbLine
 10
270.9285711313112
 20
248.0712694739301
 30
0.0
 11
271.1568426156862
 21
248.0712694739301
 31
0.0
  0
LINE
  5
291
330
1F
100
AcDbEntity
  8
APPARENT
100
AcDbLine
 10
271.7177097797393
 20
215.1103191375735
 30
0.0
 11
271.1195652484893
 21
215.1103191375735
 31
0.0
  0
LINE
  5
292
330
1F
100
AcDbEntity
  8
APPARENT
100
AcDbLine
 10
270.2418797016143
 20
214.4071941375735
 30
0.0
 11
270.2418797016143
 21
215.2995281219485
 31
0.0
  0
LINE
  5
293
330
1F
100
AcDbEntity
  8
APPARENT
100
AcDbLine
 10
287.2920965219362
 20
247.6342577551801
 30
0.0
 11
287.0650457406862
 21
247.6342577551801
 31
0.0
  0
SPLINE
  5
294
330
1F
100
AcDbEntity
  8
APPARENT
100
AcDbSpline
210
0.0
220
0.0
230
1.0
 70
     8
 71
     2
 72
     6
 73
     3
 74
     0
 42
0.000000001
 43
0.000001
 12
1.0
 22
0.0
 32
0.0
 13
1.0
 23
0.0
 33
0.0
 40
0.0
 40
0.0
 40
0.0
 40
1.0
 40
1.0
 40
1.0
 10
303.1752293109893
 20
214.1789226531985
 30
0.0
 10
303.1752293109893
 20
213.7199382781985
 30
0.0
 10
302.7394382953643
 20
213.7199382781985
 30
0.0
  0
LINE
  5
295
330
1F
100
AcDbEntity
  8
APPARENT
100
AcDbLine
 10
302.9591648578643
 20
214.2082195281985
 30
0.0
 11
302.9628269672393
 21
214.2948894500735
 31
0.0
  0
SPLINE
  5
296
330
1F
100
AcDbEntity
  8
APPARENT
100
AcDbSpline
210
0.0
220
0.0
230
1.0
 70
     8
 71
     2
 72
     6
 73
     3
 74
     0
 42
0.000000001
 43
0.000001
 12
1.0
 22
0.0
 32
0.0
 13
1.0
 23
0.0
 33
0.0
 40
0.0
 40
0.0
 40
0.0
 40
1.0
 40
1.0
 40
1.0
 10
249.1274218559265
 20
248.9210872650149
 30
0.0
 10
249.2751269340515
 20
248.7892513275149
 30
0.0
 10
249.2751269340515
 20
248.4120540618899
 30
0.0
  0
LINE
  5
297
330
1F
100
AcDbEntity
  8
APPARENT
100
AcDbLine
 10
285.3908054828643
 20
213.7431316375735
 30
0.0
 11
285.1625339984893
 21
213.7431316375735
 31
0.0
  0
LINE
  5
298
330
1F
100
AcDbEntity
  8
APPARENT
100
AcDbLine
 10
250.2797656059265
 20
249.0297298431399
 30
0.0
 11
250.7143359184265
 21
249.0297298431399
 31
0.0
  0
LINE
  5
299
330
1F
100
AcDbEntity
  8
APPARENT
100
AcDbLine
 10
265.3121160531862
 20
246.5148729895551
 30
0.0
 11
265.0508855844362
 21
246.5148729895551
 31
0.0
  0
SPLINE
  5
29A
330
1F
100
AcDbEntity
  8
APPARENT
100
AcDbSpline
210
0.0
220
0.0
230
1.0
 70
     8
 71
     2
 72
     6
 73
     3
 74
     0
 42
0.000000001
 43
0.000001
 12
1.0
 22
0.0
 32
0.0
 13
1.0
 23
0.0
 33
0.0
 40
0.0
 40
0.0
 40
0.0
 40
1.0
 40
1.0
 40
1.0
 10
313.3943455219268
 20
215.063322067261
 30
0.0
 10
313.3180515766143
 20
215.1322917938235
 30
0.0
 10
313.0995457172393
 20
215.1322917938235
 30
0.0
  0
LINE
  5
29B
330
1F
100
AcDbEntity
  8
APPARENT
100
AcDbLine
 10
277.5240301156862
 20
247.2997850989301
 30
0.0
 11
277.6180242563112
 21
247.0666308020551
 31
0.0
  0
SPLINE
  5
29C
330
1F
100
AcDbEntity
  8
APPARENT
100
AcDbSpline
210
0.0
220
0.0
230
1.0
 70
     8
 71
     2
 72
     6
 73
     3
 74
     0
 42
0.000000001
 43
0.000001
 12
1.0
 22
0.0
 32
0.0
 13
1.0
 23
0.0
 33
0.0
 40
0.0
 40
0.0
 40
0.0
 40
1.0
 40
1.0
 40
1.0
 10
291.0585760141237
 20
247.7874559973676
 30
0.0
 10
290.9651922250612
 20
247.9040331458051
 30
0.0
 10
290.6966375375612
 20
247.9040331458051
 30
0.0
  0
LINE
  5
29D
330
1F
100
AcDbEntity
  8
APPARENT
100
AcDbLine
 10
246.7140917778015
 20
247.7968196868899
 30
0.0
 11
247.0656542778015
 21
248.3644466400149
 31
0.0
  0
LINE
  5
29E
330
1F
100
AcDbEntity
  8
APPARENT
100
AcDbLine
 10
291.1641668344362
 20
246.7162890051801
 30
0.0
 11
291.1580633188112
 21
246.7187304114301
 31
0.0
  0
LINE
  5
29F
330
1F
100
AcDbEntity
  8
APPARENT
100
AcDbLine
 10
243.1436038995607
 20
249.6597460364301
 30
0.0
 11
259.6436038995607
 21
249.6597460364301
 31
0.0
  0
SPLINE
  5
2A0
330
1F
100
AcDbEntity
  8
APPARENT
100
AcDbSpline
210
0.0
220
0.0
230
1.0
 70
     8
 71
     2
 72
     6
 73
     3
 74
     0
 42
0.000000001
 43
0.000001
 12
1.0
 22
0.0
 32
0.0
 13
1.0
 23
0.0
 33
0.0
 40
0.0
 40
0.0
 40
0.0
 40
1.0
 40
1.0
 40
1.0
 10
302.7394382953643
 20
213.7199382781985
 30
0.0
 10
302.2889988422393
 20
213.7199382781985
 30
0.0
 10
302.2889988422393
 20
214.1032390594485
 30
0.0
  0
SPLINE
  5
2A1
330
1F
100
AcDbEntity
  8
APPARENT
100
AcDbSpline
210
0.0
220
0.0
230
1.0
 70
     8
 71
     2
 72
     6
 73
     3
 74
     0
 42
0.000000001
 43
0.000001
 12
1.0
 22
0.0
 32
0.0
 13
1.0
 23
0.0
 33
0.0
 40
0.0
 40
0.0
 40
0.0
 40
1.0
 40
1.0
 40
1.0
 10
282.8902410531862
 20
248.3642382239301
 30
0.0
 10
282.7901433969362
 20
248.5253710364301
 30
0.0
 10
282.4105047250612
 20
248.5253710364301
 30
0.0
  0
LINE
  5
2A2
330
1F
100
AcDbEntity
  8
APPARENT
100
AcDbLine
 10
271.7763035297393
 20
214.2948894500735
 30
0.0
 11
271.7775242328643
 21
214.1789226531985
 31
0.0
  0
SPLINE
  5
2A3
330
1F
100
AcDbEntity
  8
APPARENT
100
AcDbSpline
210
0.0
220
0.0
230
1.0
 70
     8
 71
     2
 72
     6
 73
     3
 74
     0
 42
0.000000001
 43
0.000001
 12
1.0
 22
0.0
 32
0.0
 13
1.0
 23
0.0
 33
0.0
 40
0.0
 40
0.0
 40
0.0
 40
1.0
 40
1.0
 40
1.0
 10
267.2346775531768
 20
215.826261520386
 30
0.0
 10
267.4342625141143
 20
215.9880046844485
 30
0.0
 10
267.9799168109893
 20
215.9880046844485
 30
0.0
  0
SPLINE
  5
2A4
330
1F
100
AcDbEntity
  8
APPARENT
100
AcDbSpline
210
0.0
220
0.0
230
1.0
 70
     8
 71
     2
 72
     6
 73
     3
 74
     0
 42
0.000000001
 43
0.000001
 12
1.0
 22
0.0
 32
0.0
 13
1.0
 23
0.0
 33
0.0
 40
0.0
 40
0.0
 40
0.0
 40
1.0
 40
1.0
 40
1.0
 10
272.8377508188112
 20
247.2851366614301
 30
0.0
 10
272.5752996469362
 20
247.2851366614301
 30
0.0
 10
272.4965642953737
 20
247.2295946692426
 30
0.0
  0
LINE
  5
2A5
330
1F
100
AcDbEntity
  8
APPARENT
100
AcDbLine
 10
268.5628484750612
 20
248.4814257239301
 30
0.0
 11
268.5628484750612
 21
248.7365526770551
 31
0.0
  0
LINE
  5
2A6
330
1F
100
AcDbEntity
  8
APPARENT
100
AcDbLine
 10
266.5865301156862
 20
246.7187304114301
 30
0.0
 11
266.5816473031862
 21
246.7236132239301
 31
0.0
  0
LINE
  5
2A7
330
1F
100
AcDbEntity
  8
APPARENT
100
AcDbLine
 10
312.3915379047393
 20
213.7431316375735
 30
0.0
 11
312.3915379047393
 21
215.2995281219485
 31
0.0
  0
LINE
  5
2A8
330
1F
100
AcDbEntity
  8
APPARENT
100
AcDbLine
 10
302.0741550922393
 20
215.2995281219485
 30
0.0
 11
302.2889988422393
 21
215.2995281219485
 31
0.0
  0
LINE
  5
2A9
330
1F
100
AcDbEntity
  8
APPARENT
100
AcDbLine
 10
291.1531805063112
 20
247.8771776770551
 30
0.0
 11
291.1531805063112
 21
248.7365526770551
 31
0.0
  0
LINE
  5
2AA
330
1F
100
AcDbEntity
  8
APPARENT
100
AcDbLine
 10
277.7169012094362
 20
246.8359179114301
 30
0.0
 11
277.7632879281862
 21
246.9506640051801
 31
0.0
  0
LINE
  5
2AB
330
1F
100
AcDbEntity
  8
APPARENT
100
AcDbLine
 10
303.1154148578643
 20
215.1103191375735
 30
0.0
 11
302.5172703266143
 21
215.1103191375735
 31
0.0
  0
LINE
  5
2AC
330
1F
100
AcDbEntity
  8
APPARENT
100
AcDbLine
 10
271.1568426156862
 20
246.5148729895551
 30
0.0
 11
270.9285711313112
 21
246.5148729895551
 31
0.0
  0
SPLINE
  5
2AD
330
1F
100
AcDbEntity
  8
APPARENT
100
AcDbSpline
210
0.0
220
0.0
230
1.0
 70
     8
 71
     2
 72
     6
 73
     3
 74
     0
 42
0.000000001
 43
0.000001
 12
1.0
 22
0.0
 32
0.0
 13
1.0
 23
0.0
 33
0.0
 40
0.0
 40
0.0
 40
0.0
 40
1.0
 40
1.0
 40
1.0
 10
289.6468328500612
 20
247.6782030676801
 30
0.0
 10
289.6468328500612
 20
247.9174608801801
 30
0.0
 10
289.3856023813112
 20
247.9174608801801
 30
0.0
  0
SPLINE
  5
2AE
330
1F
100
AcDbEntity
  8
APPARENT
100
AcDbSpline
210
0.0
220
0.0
230
1.0
 70
     8
 71
     2
 72
     6
 73
     3
 74
     0
 42
0.000000001
 43
0.000001
 12
1.0
 22
0.0
 32
0.0
 13
1.0
 23
0.0
 33
0.0
 40
0.0
 40
0.0
 40
0.0
 40
1.0
 40
1.0
 40
1.0
 10
247.5099902153015
 20
247.9225521087649
 30
0.0
 10
247.5099902153015
 20
248.5011653900149
 30
0.0
 10
247.5441699028015
 20
248.6500911712649
 30
0.0
  0
SPLINE
  5
2AF
330
1F
100
AcDbEntity
  8
APPARENT
100
AcDbSpline
210
0.0
220
0.0
230
1.0
 70
     8
 71
     2
 72
     6
 73
     3
 74
     0
 42
0.000000001
 43
0.000001
 12
1.0
 22
0.0
 32
0.0
 13
1.0
 23
0.0
 33
0.0
 40
0.0
 40
0.0
 40
0.0
 40
1.0
 40
1.0
 40
1.0
 10
270.1417820453643
 20
214.015958786011
 30
0.0
 10
270.2418797016143
 20
214.1227703094485
 30
0.0
 10
270.2418797016143
 20
214.4071941375735
 30
0.0
  0
SPLINE
  5
2B0
330
1F
100
AcDbEntity
  8
APPARENT
100
AcDbSpline
210
0.0
220
0.0
230
1.0
 70
     8
 71
     2
 72
     6
 73
     3
 74
     0
 42
0.000000001
 43
0.000001
 12
1.0
 22
0.0
 32
0.0
 13
1.0
 23
0.0
 33
0.0
 40
0.0
 40
0.0
 40
0.0
 40
1.0
 40
1.0
 40
1.0
 10
285.0215887094362
 20
248.3569140051801
 30
0.0
 10
285.0557683969362
 20
248.5058397864301
 30
0.0
 10
285.2169012094362
 20
248.6230272864301
 30
0.0
  0
SPLINE
  5
2B1
330
1F
100
AcDbEntity
  8
APPARENT
100
AcDbSpline
210
0.0
220
0.0
230
1.0
 70
     8
 71
     2
 72
     6
 73
     3
 74
     0
 42
0.000000001
 43
0.000001
 12
1.0
 22
0.0
 32
0.0
 13
1.0
 23
0.0
 33
0.0
 40
0.0
 40
0.0
 40
0.0
 40
1.0
 40
1.0
 40
1.0
 10
272.2444891000612
 20
247.6342577551801
 30
0.0
 10
272.2444891000612
 20
247.9064745520551
 30
0.0
 10
272.3677801156862
 20
247.9998583411176
 30
0.0
  0
SPLINE
  5
2B2
330
1F
100
AcDbEntity
  8
APPARENT
100
AcDbSpline
210
0.0
220
0.0
230
1.0
 70
     8
 71
     2
 72
     6
 73
     3
 74
     0
 42
0.000000001
 43
0.000001
 12
1.0
 22
0.0
 32
0.0
 13
1.0
 23
0.0
 33
0.0
 40
0.0
 40
0.0
 40
0.0
 40
1.0
 40
1.0
 40
1.0
 10
301.1708347797393
 20
213.9091472625735
 30
0.0
 10
301.4393894672393
 20
213.9091472625735
 30
0.0
 10
301.5394871234893
 20
214.015958786011
 30
0.0
  0
SPLINE
  5
2B3
330
1F
100
AcDbEntity
  8
APPARENT
100
AcDbSpline
210
0.0
220
0.0
230
1.0
 70
     8
 71
     2
 72
     6
 73
     3
 74
     0
 42
0.000000001
 43
0.000001
 12
1.0
 22
0.0
 32
0.0
 13
1.0
 23
0.0
 33
0.0
 40
0.0
 40
0.0
 40
0.0
 40
1.0
 40
1.0
 40
1.0
 10
299.3776218891143
 20
215.9880046844485
 30
0.0
 10
300.0075047016143
 20
215.9880046844485
 30
0.0
 10
300.1655857563018
 20
215.804288864136
 30
0.0
  0
LINE
  5
2B4
330
1F
100
AcDbEntity
  8
APPARENT
100
AcDbLine
 10
281.6353582406862
 20
248.5253710364301
 30
0.0
 11
281.6353582406862
 21
246.7260546301801
 31
0.0
  0
LINE
  5
2B5
330
1F
100
AcDbEntity
  8
APPARENT
100
AcDbLine
 10
286.2416355609893
 20
213.7431316375735
 30
0.0
 11
286.2416355609893
 21
214.7953777313235
 31
0.0
  0
SPLINE
  5
2B6
330
1F
100
AcDbEntity
  8
APPARENT
100
AcDbSpline
210
0.0
220
0.0
230
1.0
 70
     8
 71
     2
 72
     6
 73
     3
 74
     0
 42
0.000000001
 43
0.000001
 12
1.0
 22
0.0
 32
0.0
 13
1.0
 23
0.0
 33
0.0
 40
0.0
 40
0.0
 40
0.0
 40
1.0
 40
1.0
 40
1.0
 10
282.3592351938112
 20
246.7260546301801
 30
0.0
 10
282.7584051156862
 20
246.7260546301801
 30
0.0
 10
282.8743719125612
 20
246.8853563879926
 30
0.0
  0
SPLINE
  5
2B7
330
1F
100
AcDbEntity
  8
APPARENT
100
AcDbSpline
210
0.0
220
0.0
230
1.0
 70
     8
 71
     2
 72
     6
 73
     3
 74
     0
 42
0.000000001
 43
0.000001
 12
1.0
 22
0.0
 32
0.0
 13
1.0
 23
0.0
 33
0.0
 40
0.0
 40
0.0
 40
0.0
 40
1.0
 40
1.0
 40
1.0
 10
247.7699999809265
 20
248.2558040618899
 30
0.0
 10
247.7699999809265
 20
247.3183040618899
 30
0.0
 10
247.849956035614
 20
247.1571712493899
 30
0.0
  0
SPLINE
  5
2B8
330
1F
100
AcDbEntity
  8
APPARENT
100
AcDbSpline
210
0.0
220
0.0
230
1.0
 70
     8
 71
     2
 72
     6
 73
     3
 74
     0
 42
0.000000001
 43
0.000001
 12
1.0
 22
0.0
 32
0.0
 13
1.0
 23
0.0
 33
0.0
 40
0.0
 40
0.0
 40
0.0
 40
1.0
 40
1.0
 40
1.0
 10
248.938823223114
 20
248.7648372650149
 30
0.0
 10
248.8515429496765
 20
248.8417415618899
 30
0.0
 10
248.5451464653015
 20
248.8417415618899
 30
0.0
  0
SPLINE
  5
2B9
330
1F
100
AcDbEntity
  8
APPARENT
100
AcDbSpline
210
0.0
220
0.0
230
1.0
 70
     8
 71
     2
 72
     6
 73
     3
 74
     0
 42
0.000000001
 43
0.000001
 12
1.0
 22
0.0
 32
0.0
 13
1.0
 23
0.0
 33
0.0
 40
0.0
 40
0.0
 40
0.0
 40
1.0
 40
1.0
 40
1.0
 10
247.889018535614
 20
248.7520198822024
 30
0.0
 10
247.7699999809265
 20
248.6622982025149
 30
0.0
 10
247.7699999809265
 20
248.2558040618899
 30
0.0
  0
SPLINE
  5
2BA
330
1F
100
AcDbEntity
  8
APPARENT
100
AcDbSpline
210
0.0
220
0.0
230
1.0
 70
     8
 71
     2
 72
     6
 73
     3
 74
     0
 42
0.000000001
 43
0.000001
 12
1.0
 22
0.0
 32
0.0
 13
1.0
 23
0.0
 33
0.0
 40
0.0
 40
0.0
 40
0.0
 40
1.0
 40
1.0
 40
1.0
 10
288.9864324594362
 20
247.8869433020551
 30
0.0
 10
289.1219305063112
 20
248.1066698645551
 30
0.0
 10
289.4332098031862
 20
248.1066698645551
 30
0.0
  0
LINE
  5
2BB
330
1F
100
AcDbEntity
  8
APPARENT
100
AcDbLine
 10
245.5886034965515
 20
247.2780208587649
 30
0.0
 11
244.4643359184265
 21
247.2780208587649
 31
0.0
  0
LINE
  5
2BC
330
1F
100
AcDbEntity
  8
APPARENT
100
AcDbLine
 10
320.6099536516058
 20
217.811148316754
 30
0.0
 11
321.0099536516059
 21
217.811148316754
 31
0.0
  0
LINE
  5
2BD
330
1F
100
AcDbEntity
  8
APPARENT
100
AcDbLine
 10
255.1686816215515
 20
246.8080501556399
 30
0.0
 11
255.1686816215515
 21
249.0297298431399
 31
0.0
  0
SPLINE
  5
2BE
330
1F
100
AcDbEntity
  8
APPARENT
100
AcDbSpline
210
0.0
220
0.0
230
1.0
 70
     8
 71
     2
 72
     6
 73
     3
 74
     0
 42
0.000000001
 43
0.000001
 12
1.0
 22
0.0
 32
0.0
 13
1.0
 23
0.0
 33
0.0
 40
0.0
 40
0.0
 40
0.0
 40
1.0
 40
1.0
 40
1.0
 10
274.6700262094362
 20
248.0932421301801
 30
0.0
 10
275.0044988656862
 20
248.0932421301801
 30
0.0
 10
275.1222967172487
 20
247.9760546301801
 30
0.0
  0
LINE
  5
2BF
330
1F
100
AcDbEntity
  8
APPARENT
100
AcDbLine
 10
283.8956053853034
 20
213.7431316375735
 30
0.0
 11
272.3119835853576
 21
213.7431316375735
 31
0.0
  0
SPLINE
  5
2C0
330
1F
100
AcDbEntity
  8
APPARENT
100
AcDbSpline
210
0.0
220
0.0
230
1.0
 70
     8
 71
     2
 72
     6
 73
     3
 74
     0
 42
0.000000001
 43
0.000001
 12
1.0
 22
0.0
 32
0.0
 13
1.0
 23
0.0
 33
0.0
 40
0.0
 40
0.0
 40
0.0
 40
1.0
 40
1.0
 40
1.0
 10
274.6407293344362
 20
247.9040331458051
 30
0.0
 10
274.1609930063112
 20
247.9040331458051
 30
0.0
 10
274.1609930063112
 20
247.4511522864301
 30
0.0
  0
SPLINE
  5
2C1
330
1F
100
AcDbEntity
  8
APPARENT
100
AcDbSpline
210
0.0
220
0.0
230
1.0
 70
     8
 71
     2
 72
     6
 73
     3
 74
     0
 42
0.000000001
 43
0.000001
 12
1.0
 22
0.0
 32
0.0
 13
1.0
 23
0.0
 33
0.0
 40
0.0
 40
0.0
 40
0.0
 40
1.0
 40
1.0
 40
1.0
 10
272.8890203500612
 20
247.9162401770551
 30
0.0
 10
272.4690984750612
 20
247.9162401770551
 30
0.0
 10
272.4690984750612
 20
247.6794237708051
 30
0.0
  0
LINE
  5
2C2
330
1F
100
AcDbEntity
  8
APPARENT
100
AcDbLine
 10
301.6554539203643
 20
213.9469890594485
 30
0.0
 11
301.6505711078643
 21
213.9518718719485
 31
0.0
  0
SPLINE
  5
2C3
330
1F
100
AcDbEntity
  8
APPARENT
100
AcDbSpline
210
0.0
220
0.0
230
1.0
 70
     8
 71
     2
 72
     6
 73
     3
 74
     0
 42
0.000000001
 43
0.000001
 12
1.0
 22
0.0
 32
0.0
 13
1.0
 23
0.0
 33
0.0
 40
0.0
 40
0.0
 40
0.0
 40
1.0
 40
1.0
 40
1.0
 10
273.2967351938112
 20
246.6845507239301
 30
0.0
 10
273.1661199594362
 20
246.4916796301801
 30
0.0
 10
272.7681707406862
 20
246.4916796301801
 30
0.0
  0
LINE
  5
2C4
330
1F
100
AcDbEntity
  8
APPARENT
100
AcDbLine
 10
250.5300097465515
 20
246.8080501556399
 30
0.0
 11
250.2797656059265
 21
246.8080501556399
 31
0.0
  0
SPLINE
  5
2C5
330
1F
100
AcDbEntity
  8
APPARENT
100
AcDbSpline
210
0.0
220
0.0
230
1.0
 70
     8
 71
     2
 72
     6
 73
     3
 74
     0
 42
0.000000001
 43
0.000001
 12
1.0
 22
0.0
 32
0.0
 13
1.0
 23
0.0
 33
0.0
 40
0.0
 40
0.0
 40
0.0
 40
1.0
 40
1.0
 40
1.0
 10
290.2779363656862
 20
247.3168749426801
 30
0.0
 10
290.2779363656862
 20
246.9262499426801
 30
0.0
 10
290.3603338266237
 20
246.8035692786176
 30
0.0
  0
LINE
  5
2C6
330
1F
100
AcDbEntity
  8
APPARENT
100
AcDbLine
 10
286.5047430063112
 20
248.0578417395551
 30
0.0
 11
286.5035223031862
 21
248.1262011145551
 31
0.0
  0
SPLINE
  5
2C7
330
1F
100
AcDbEntity
  8
APPARENT
100
AcDbSpline
210
0.0
220
0.0
230
1.0
 70
     8
 71
     2
 72
     6
 73
     3
 74
     0
 42
0.000000001
 43
0.000001
 12
1.0
 22
0.0
 32
0.0
 13
1.0
 23
0.0
 33
0.0
 40
0.0
 40
0.0
 40
0.0
 40
1.0
 40
1.0
 40
1.0
 10
265.8278631234987
 20
246.7522997473676
 30
0.0
 10
265.8980535531862
 20
246.6808886145551
 30
0.0
 10
266.1019109750612
 20
246.6808886145551
 30
0.0
  0
LINE
  5
2C8
330
1F
100
AcDbEntity
  8
APPARENT
100
AcDbLine
 10
289.0047430063112
 20
247.4474901770551
 30
0.0
 11
289.0047430063112
 21
246.5148729895551
 31
0.0
  0
LINE
  5
2C9
330
1F
100
AcDbEntity
  8
APPARENT
100
AcDbLine
 10
251.6262011528015
 20
246.8080501556399
 30
0.0
 11
251.3759570121765
 21
246.8080501556399
 31
0.0
  0
LINE
  5
2CA
330
1F
100
AcDbEntity
  8
APPARENT
100
AcDbLine
 10
285.3908054828643
 20
214.6794109344485
 30
0.0
 11
285.3908054828643
 21
213.7431316375735
 31
0.0
  0
SPLINE
  5
2CB
330
1F
100
AcDbEntity
  8
APPARENT
100
AcDbSpline
210
0.0
220
0.0
230
1.0
 70
     8
 71
     2
 72
     6
 73
     3
 74
     0
 42
0.000000001
 43
0.000001
 12
1.0
 22
0.0
 32
0.0
 13
1.0
 23
0.0
 33
0.0
 40
0.0
 40
0.0
 40
0.0
 40
1.0
 40
1.0
 40
1.0
 10
275.1222967172487
 20
247.9760546301801
 30
0.0
 10
275.2400945688112
 20
247.8588671301801
 30
0.0
 10
275.2400945688112
 20
247.5280565833051
 30
0.0
  0
LINE
  5
2CC
330
1F
100
AcDbEntity
  8
APPARENT
100
AcDbLine
 10
271.1568426156862
 20
248.0712694739301
 30
0.0
 11
271.1336492563112
 21
247.8918261145551
 31
0.0
  0
LINE
  5
2CD
330
1F
100
AcDbEntity
  8
APPARENT
100
AcDbLine
 10
281.3851141000612
 20
246.5148729895551
 30
0.0
 11
281.3851141000612
 21
248.7365526770551
 31
0.0
  0
SPLINE
  5
2CE
330
1F
100
AcDbEntity
  8
APPARENT
100
AcDbSpline
210
0.0
220
0.0
230
1.0
 70
     8
 71
     2
 72
     6
 73
     3
 74
     0
 42
0.000000001
 43
0.000001
 12
1.0
 22
0.0
 32
0.0
 13
1.0
 23
0.0
 33
0.0
 40
0.0
 40
0.0
 40
0.0
 40
1.0
 40
1.0
 40
1.0
 10
248.3718066215515
 20
246.7848567962649
 30
0.0
 10
247.8127245903015
 20
246.7848567962649
 30
0.0
 10
247.6613574028015
 20
246.9844417572024
 30
0.0
  0
LINE
  5
2CF
330
1F
100
AcDbEntity
  8
APPARENT
100
AcDbLine
 10
247.1254687309265
 20
246.8080501556399
 30
0.0
 11
246.7140917778015
 21
247.4367122650149
 31
0.0
  0
ARC
  5
2D0
330
1F
100
AcDbEntity
  8
APPARENT
100
AcDbCircle
 10
289.6099536516059
 20
215.7431316375735
 30
0.0
 40
1.599999999999994
100
AcDbArc
 50
270.0
 51
0.0
  0
SPLINE
  5
2D1
330
1F
100
AcDbEntity
  8
APPARENT
100
AcDbSpline
210
0.0
220
0.0
230
1.0
 70
     8
 71
     2
 72
     6
 73
     3
 74
     0
 42
0.000000001
 43
0.000001
 12
1.0
 22
0.0
 32
0.0
 13
1.0
 23
0.0
 33
0.0
 40
0.0
 40
0.0
 40
0.0
 40
1.0
 40
1.0
 40
1.0
 10
312.6112644672393
 20
215.0834636688235
 30
0.0
 10
312.7162449359893
 20
215.3215007781985
 30
0.0
 10
313.1288425922393
 20
215.3215007781985
 30
0.0
  0
LINE
  5
2D2
330
1F
100
AcDbEntity
  8
APPARENT
100
AcDbLine
 10
276.4961980844362
 20
248.7365526770551
 30
0.0
 11
276.9307683969362
 21
248.7365526770551
 31
0.0
  0
SPLINE
  5
2D3
330
1F
100
AcDbEntity
  8
APPARENT
100
AcDbSpline
210
0.0
220
0.0
230
1.0
 70
     8
 71
     2
 72
     6
 73
     3
 74
     0
 42
0.000000001
 43
0.000001
 12
1.0
 22
0.0
 32
0.0
 13
1.0
 23
0.0
 33
0.0
 40
0.0
 40
0.0
 40
0.0
 40
1.0
 40
1.0
 40
1.0
 10
286.0323308969362
 20
248.7597460364301
 30
0.0
 10
286.4571355844362
 20
248.7597460364301
 30
0.0
 10
286.6048406625612
 20
248.6279100989301
 30
0.0
  0
LINE
  5
2D4
330
1F
100
AcDbEntity
  8
APPARENT
100
AcDbLine
 10
312.6198093891143
 20
214.6794109344485
 30
0.0
 11
312.6198093891143
 21
213.7431316375735
 31
0.0
  0
SPLINE
  5
2D5
330
1F
100
AcDbEntity
  8
APPARENT
100
AcDbSpline
210
0.0
220
0.0
230
1.0
 70
     8
 71
     2
 72
     6
 73
     3
 74
     0
 42
0.000000001
 43
0.000001
 12
1.0
 22
0.0
 32
0.0
 13
1.0
 23
0.0
 33
0.0
 40
0.0
 40
0.0
 40
0.0
 40
1.0
 40
1.0
 40
1.0
 10
300.8967869281768
 20
213.980558395386
 30
0.0
 10
300.9669773578643
 20
213.9091472625735
 30
0.0
 10
301.1708347797393
 20
213.9091472625735
 30
0.0
  0
LINE
  5
2D6
330
1F
100
AcDbEntity
  8
APPARENT
100
AcDbLine
 10
249.0554003715515
 20
247.5502376556399
 30
0.0
 11
249.3044238090515
 21
247.5502376556399
 31
0.0
  0
SPLINE
  5
2D7
330
1F
100
AcDbEntity
  8
APPARENT
100
AcDbSpline
210
0.0
220
0.0
230
1.0
 70
     8
 71
     2
 72
     6
 73
     3
 74
     0
 42
0.000000001
 43
0.000001
 12
1.0
 22
0.0
 32
0.0
 13
1.0
 23
0.0
 33
0.0
 40
0.0
 40
0.0
 40
0.0
 40
1.0
 40
1.0
 40
1.0
 10
287.0650457406862
 20
247.6342577551801
 30
0.0
 10
287.0650457406862
 20
247.9064745520551
 30
0.0
 10
287.1883367563112
 20
247.9998583411176
 30
0.0
  0
SPLINE
  5
2D8
330
1F
100
AcDbEntity
  8
APPARENT
100
AcDbSpline
210
0.0
220
0.0
230
1.0
 70
     8
 71
     2
 72
     6
 73
     3
 74
     0
 42
0.000000001
 43
0.000001
 12
1.0
 22
0.0
 32
0.0
 13
1.0
 23
0.0
 33
0.0
 40
0.0
 40
0.0
 40
0.0
 40
1.0
 40
1.0
 40
1.0
 10
285.8705418109893
 20
215.1322917938235
 30
0.0
 10
285.3908054828643
 20
215.1322917938235
 30
0.0
 10
285.3908054828643
 20
214.6794109344485
 30
0.0
  0
SPLINE
  5
2D9
330
1F
100
AcDbEntity
  8
APPARENT
100
AcDbSpline
210
0.0
220
0.0
230
1.0
 70
     8
 71
     2
 72
     6
 73
     3
 74
     0
 42
0.000000001
 43
0.000001
 12
1.0
 22
0.0
 32
0.0
 13
1.0
 23
0.0
 33
0.0
 40
0.0
 40
0.0
 40
0.0
 40
1.0
 40
1.0
 40
1.0
 10
249.3044238090515
 20
247.4660091400149
 30
0.0
 10
249.3044238090515
 20
247.0106868743899
 30
0.0
 10
249.1493945121765
 20
246.8977718353274
 30
0.0
  0
LINE
  5
2DA
330
1F
100
AcDbEntity
  8
APPARENT
100
AcDbLine
 10
268.1197332406862
 20
248.0712694739301
 30
0.0
 11
268.3736394906862
 21
248.0712694739301
 31
0.0
  0
LINE
  5
2DB
330
1F
100
AcDbEntity
  8
APPARENT
100
AcDbLine
 10
268.6867039203643
 20
214.8551921844485
 30
0.0
 11
268.6867039203643
 21
214.9992351531985
 31
0.0
  0
SPLINE
  5
2DC
330
1F
100
AcDbEntity
  8
APPARENT
100
AcDbSpline
210
0.0
220
0.0
230
1.0
 70
     8
 71
     2
 72
     6
 73
     3
 74
     0
 42
0.000000001
 43
0.000001
 12
1.0
 22
0.0
 32
0.0
 13
1.0
 23
0.0
 33
0.0
 40
0.0
 40
0.0
 40
0.0
 40
1.0
 40
1.0
 40
1.0
 10
289.4332098031862
 20
248.1066698645551
 30
0.0
 10
289.8628973031862
 20
248.1066698645551
 30
0.0
 10
289.8628973031862
 20
247.6635546301801
 30
0.0
  0
LINE
  5
2DD
330
1F
100
AcDbEntity
  8
APPARENT
100
AcDbLine
 10
250.2797656059265
 20
246.8080501556399
 30
0.0
 11
250.2797656059265
 21
249.0297298431399
 31
0.0
  0
SPLINE
  5
2DE
330
1F
100
AcDbEntity
  8
APPARENT
100
AcDbSpline
210
0.0
220
0.0
230
1.0
 70
     8
 71
     2
 72
     6
 73
     3
 74
     0
 42
0.000000001
 43
0.000001
 12
1.0
 22
0.0
 32
0.0
 13
1.0
 23
0.0
 33
0.0
 40
0.0
 40
0.0
 40
0.0
 40
1.0
 40
1.0
 40
1.0
 10
286.1653416156768
 20
215.063322067261
 30
0.0
 10
286.0890476703643
 20
215.1322917938235
 30
0.0
 10
285.8705418109893
 20
215.1322917938235
 30
0.0
  0
LINE
  5
2DF
330
1F
100
AcDbEntity
  8
APPARENT
100
AcDbLine
 10
277.8084539438112
 20
247.0666308020551
 30
0.0
 11
277.9048894906862
 21
247.2985643958051
 31
0.0
  0
LINE
  5
2E0
330
1F
100
AcDbEntity
  8
APPARENT
100
AcDbLine
 10
291.3814519906862
 20
246.5148729895551
 30
0.0
 11
291.1531805063112
 21
246.5148729895551
 31
0.0
  0
LINE
  5
2E1
330
1F
100
AcDbEntity
  8
APPARENT
100
AcDbLine
 10
301.8678562641143
 20
213.7431316375735
 30
0.0
 11
301.6395847797393
 21
213.7431316375735
 31
0.0
  0
SPLINE
  5
2E2
330
1F
100
AcDbEntity
  8
APPARENT
100
AcDbSpline
210
0.0
220
0.0
230
1.0
 70
     8
 71
     2
 72
     6
 73
     3
 74
     0
 42
0.000000001
 43
0.000001
 12
1.0
 22
0.0
 32
0.0
 13
1.0
 23
0.0
 33
0.0
 40
0.0
 40
0.0
 40
0.0
 40
1.0
 40
1.0
 40
1.0
 10
299.3764011859893
 20
215.7768230438235
 30
0.0
 10
298.8490574359893
 20
215.7768230438235
 30
0.0
 10
298.7593357563018
 20
215.6596355438235
 30
0.0
  0
LINE
  5
2E3
330
1F
100
AcDbEntity
  8
APPARENT
100
AcDbLine
 10
278.4944891000612
 20
248.7365526770551
 30
0.0
 11
278.9351629281862
 21
248.7365526770551
 31
0.0
  0
LINE
  5
2E4
330
1F
100
AcDbEntity
  8
APPARENT
100
AcDbLine
 10
280.3267644906862
 20
248.7365526770551
 30
0.0
 11
281.1568426156862
 21
246.5148729895551
 31
0.0
  0
SPLINE
  5
2E5
330
1F
100
AcDbEntity
  8
APPARENT
100
AcDbSpline
210
0.0
220
0.0
230
1.0
 70
     8
 71
     2
 72
     6
 73
     3
 74
     0
 42
0.000000001
 43
0.000001
 12
1.0
 22
0.0
 32
0.0
 13
1.0
 23
0.0
 33
0.0
 40
0.0
 40
0.0
 40
0.0
 40
1.0
 40
1.0
 40
1.0
 10
272.7681707406862
 20
246.4916796301801
 30
0.0
 10
272.1785711313112
 20
246.4916796301801
 30
0.0
 10
272.1785711313112
 20
246.9653124426801
 30
0.0
  0
LINE
  5
2E6
330
1F
100
AcDbEntity
  8
APPARENT
100
AcDbLine
 10
266.7989324594362
 20
248.0712694739301
 30
0.0
 11
266.7989324594362
 21
246.5148729895551
 31
0.0
  0
LINE
  5
2E7
330
1F
100
AcDbEntity
  8
APPARENT
100
AcDbLine
 10
283.8130926156862
 20
248.7365526770551
 30
0.0
 11
283.8130926156862
 21
246.5148729895551
 31
0.0
  0
LINE
  5
2E8
330
1F
100
AcDbEntity
  8
APPARENT
100
AcDbLine
 10
311.3086395263671
 20
214.1431316375735
 30
0.0
 11
311.3086395263671
 21
213.7431316375735
 31
0.0
  0
SPLINE
  5
2E9
330
1F
100
AcDbEntity
  8
APPARENT
100
AcDbSpline
210
0.0
220
0.0
230
1.0
 70
     8
 71
     2
 72
     6
 73
     3
 74
     0
 42
0.000000001
 43
0.000001
 12
1.0
 22
0.0
 32
0.0
 13
1.0
 23
0.0
 33
0.0
 40
0.0
 40
0.0
 40
0.0
 40
1.0
 40
1.0
 40
1.0
 10
285.2474187875612
 20
247.9626268958051
 30
0.0
 10
285.2474187875612
 20
247.0251268958051
 30
0.0
 10
285.3273748422487
 20
246.8639940833051
 30
0.0
  0
LINE
  5
2EA
330
1F
100
AcDbEntity
  8
APPARENT
100
AcDbLine
 10
287.2896551156862
 20
247.6794237708051
 30
0.0
 11
287.2920965219362
 21
247.6342577551801
 31
0.0
  0
LINE
  5
2EB
330
1F
100
AcDbEntity
  8
APPARENT
100
AcDbLine
 10
252.7187304496765
 20
246.8080501556399
 30
0.0
 11
252.4684863090515
 21
246.8080501556399
 31
0.0
  0
LINE
  5
2EC
330
1F
100
AcDbEntity
  8
APPARENT
100
AcDbLine
 10
273.5115789438112
 20
247.5414843176801
 30
0.0
 11
273.5115789438112
 21
246.5148729895551
 31
0.0
  0
LINE
  5
2ED
330
1F
100
AcDbEntity
  8
APPARENT
100
AcDbLine
 10
288.3321355844362
 20
246.5148729895551
 30
0.0
 11
288.1038641000612
 21
246.5148729895551
 31
0.0
  0
SPLINE
  5
2EE
330
1F
100
AcDbEntity
  8
APPARENT
100
AcDbSpline
210
0.0
220
0.0
230
1.0
 70
     8
 71
     2
 72
     6
 73
     3
 74
     0
 42
0.000000001
 43
0.000001
 12
1.0
 22
0.0
 32
0.0
 13
1.0
 23
0.0
 33
0.0
 40
0.0
 40
0.0
 40
0.0
 40
1.0
 40
1.0
 40
1.0
 10
268.5969822406768
 20
214.0483074188235
 30
0.0
 10
268.6867039203643
 20
214.1654949188235
 30
0.0
 10
268.6867039203643
 20
214.8551921844485
 30
0.0
  0
LINE
  5
2EF
330
1F
100
AcDbEntity
  8
APPARENT
100
AcDbLine
 10
249.3764452934265
 20
247.5111751556399
 30
0.0
 11
249.3813281059265
 21
247.7223567962649
 31
0.0
  0
SPLINE
  5
2F0
330
1F
100
AcDbEntity
  8
APPARENT
100
AcDbSpline
210
0.0
220
0.0
230
1.0
 70
     8
 71
     2
 72
     6
 73
     3
 74
     0
 42
0.000000001
 43
0.000001
 12
1.0
 22
0.0
 32
0.0
 13
1.0
 23
0.0
 33
0.0
 40
0.0
 40
0.0
 40
0.0
 40
1.0
 40
1.0
 40
1.0
 10
272.3104070688112
 20
247.3547167395551
 30
0.0
 10
272.4422430063112
 20
247.4621386145551
 30
0.0
 10
272.7864812875612
 20
247.4621386145551
 30
0.0
  0
LINE
  5
2F1
330
1F
100
AcDbEntity
  8
APPARENT
100
AcDbLine
 10
279.4271062875612
 20
246.5148729895551
 30
0.0
 11
279.1609930063112
 21
246.5148729895551
 31
0.0
  0
LINE
  5
2F2
330
1F
100
AcDbEntity
  8
APPARENT
100
AcDbLine
 10
256.1940722465515
 20
248.8185482025149
 30
0.0
 11
255.4189257621765
 21
248.8185482025149
 31
0.0
  0
LINE
  5
2F3
330
1F
100
AcDbEntity
  8
APPARENT
100
AcDbLine
 10
250.5287890434265
 20
248.7697200775149
 30
0.0
 11
250.5300097465515
 21
248.7074642181399
 31
0.0
  0
LINE
  5
2F4
330
1F
100
AcDbEntity
  8
APPARENT
100
AcDbLine
 10
270.2577488422393
 20
213.9469890594485
 30
0.0
 11
270.2528660297393
 21
213.9518718719485
 31
0.0
  0
LINE
  5
2F5
330
1F
100
AcDbEntity
  8
APPARENT
100
AcDbLine
 10
291.3814519906862
 20
248.7365526770551
 30
0.0
 11
291.3814519906862
 21
246.5148729895551
 31
0.0
  0
SPLINE
  5
2F6
330
1F
100
AcDbEntity
  8
APPARENT
100
AcDbSpline
210
0.0
220
0.0
230
1.0
 70
     8
 71
     2
 72
     6
 73
     3
 74
     0
 42
0.000000001
 43
0.000001
 12
1.0
 22
0.0
 32
0.0
 13
1.0
 23
0.0
 33
0.0
 40
0.0
 40
0.0
 40
0.0
 40
1.0
 40
1.0
 40
1.0
 10
249.1493945121765
 20
246.8977718353274
 30
0.0
 10
248.9943652153015
 20
246.7848567962649
 30
0.0
 10
248.3718066215515
 20
246.7848567962649
 30
0.0
  0
LINE
  5
2F7
330
1F
100
AcDbEntity
  8
APPARENT
100
AcDbLine
 10
278.6885808969362
 20
248.5595507239301
 30
0.0
 11
278.6812566781862
 21
248.5595507239301
 31
0.0
  0
LINE
  5
2F8
330
1F
100
AcDbEntity
  8
APPARENT
100
AcDbLine
 10
250.0685839653015
 20
247.7223567962649
 30
0.0
 11
250.0685839653015
 21
247.5111751556399
 31
0.0
  0
SPLINE
  5
2F9
330
1F
100
AcDbEntity
  8
APPARENT
100
AcDbSpline
210
0.0
220
0.0
230
1.0
 70
     8
 71
     2
 72
     6
 73
     3
 74
     0
 42
0.000000001
 43
0.000001
 12
1.0
 22
0.0
 32
0.0
 13
1.0
 23
0.0
 33
0.0
 40
0.0
 40
0.0
 40
0.0
 40
1.0
 40
1.0
 40
1.0
 10
287.5887273813112
 20
246.4916796301801
 30
0.0
 10
286.9991277719362
 20
246.4916796301801
 30
0.0
 10
286.9991277719362
 20
246.9653124426801
 30
0.0
  0
LINE
  5
2FA
330
1F
100
AcDbEntity
  8
APPARENT
100
AcDbLine
 10
271.1195652484893
 20
215.6742839813235
 30
0.0
 11
271.1195652484893
 21
215.2995281219485
 31
0.0
  0
SPLINE
  5
2FB
330
1F
100
AcDbEntity
  8
APPARENT
100
AcDbSpline
210
0.0
220
0.0
230
1.0
 70
     8
 71
     2
 72
     6
 73
     3
 74
     0
 42
0.000000001
 43
0.000001
 12
1.0
 22
0.0
 32
0.0
 13
1.0
 23
0.0
 33
0.0
 40
0.0
 40
0.0
 40
0.0
 40
1.0
 40
1.0
 40
1.0
 10
272.3677801156862
 20
247.9998583411176
 30
0.0
 10
272.4910711313112
 20
248.0932421301801
 30
0.0
 10
272.8487371469362
 20
248.0932421301801
 30
0.0
  0
LINE
  5
2FC
330
1F
100
AcDbEntity
  8
APPARENT
100
AcDbLine
 10
256.2599902153015
 20
246.8080501556399
 30
0.0
 11
255.1686816215515
 21
246.8080501556399
 31
0.0
  0
LINE
  5
2FD
330
1F
100
AcDbEntity
  8
APPARENT
100
AcDbLine
 10
252.4648241996765
 20
248.8527278900149
 30
0.0
 11
252.4452929496765
 21
248.8002376556399
 31
0.0
  0
LINE
  5
2FE
330
1F
100
AcDbEntity
  8
APPARENT
100
AcDbLine
 10
286.5364812875612
 20
247.1252245520551
 30
0.0
 11
286.5328191781862
 21
247.2570604895551
 31
0.0
  0
SPLINE
  5
2FF
330
1F
100
AcDbEntity
  8
APPARENT
100
AcDbSpline
210
0.0
220
0.0
230
1.0
 70
     8
 71
     2
 72
     6
 73
     3
 74
     0
 42
0.000000001
 43
0.000001
 12
1.0
 22
0.0
 32
0.0
 13
1.0
 23
0.0
 33
0.0
 40
0.0
 40
0.0
 40
0.0
 40
1.0
 40
1.0
 40
1.0
 10
287.6338933969362
 20
246.6808886145551
 30
0.0
 10
288.1148504281862
 20
246.6808886145551
 30
0.0
 10
288.1148504281862
 20
246.9738573645551
 30
0.0
  0
LINE
  5
300
330
1F
100
AcDbEntity
  8
APPARENT
100
AcDbLine
 10
284.4948093891143
 20
215.9648113250735
 30
0.0
 11
284.7450535297393
 21
215.9648113250735
 31
0.0
  0
SPLINE
  5
301
330
1F
100
AcDbEntity
  8
APPARENT
100
AcDbSpline
210
0.0
220
0.0
230
1.0
 70
     8
 71
     2
 72
     6
 73
     3
 74
     0
 42
0.000000001
 43
0.000001
 12
1.0
 22
0.0
 32
0.0
 13
1.0
 23
0.0
 33
0.0
 40
0.0
 40
0.0
 40
0.0
 40
1.0
 40
1.0
 40
1.0
 10
266.1019109750612
 20
246.6808886145551
 30
0.0
 10
266.3704656625612
 20
246.6808886145551
 30
0.0
 10
266.4705633188112
 20
246.7877001379926
 30
0.0
  0
SPLINE
  5
302
330
1F
100
AcDbEntity
  8
APPARENT
100
AcDbSpline
210
0.0
220
0.0
230
1.0
 70
     8
 71
     2
 72
     6
 73
     3
 74
     0
 42
0.000000001
 43
0.000001
 12
1.0
 22
0.0
 32
0.0
 13
1.0
 23
0.0
 33
0.0
 40
0.0
 40
0.0
 40
0.0
 40
1.0
 40
1.0
 40
1.0
 10
283.0599187875612
 20
248.5265917395551
 30
0.0
 10
283.2295965219362
 20
248.3166308020551
 30
0.0
 10
283.2295965219362
 20
247.7221483801801
 30
0.0
  0
SPLINE
  5
303
330
1F
100
AcDbEntity
  8
APPARENT
100
AcDbSpline
210
0.0
220
0.0
230
1.0
 70
     8
 71
     2
 72
     6
 73
     3
 74
     0
 42
0.000000001
 43
0.000001
 12
1.0
 22
0.0
 32
0.0
 13
1.0
 23
0.0
 33
0.0
 40
0.0
 40
0.0
 40
0.0
 40
1.0
 40
1.0
 40
1.0
 10
247.6613574028015
 20
246.9844417572024
 30
0.0
 10
247.5099902153015
 20
247.1840267181399
 30
0.0
 10
247.5099902153015
 20
247.9225521087649
 30
0.0
  0
SPLINE
  5
304
330
1F
100
AcDbEntity
  8
APPARENT
100
AcDbSpline
210
0.0
220
0.0
230
1.0
 70
     8
 71
     2
 72
     6
 73
     3
 74
     0
 42
0.000000001
 43
0.000001
 12
1.0
 22
0.0
 32
0.0
 13
1.0
 23
0.0
 33
0.0
 40
0.0
 40
0.0
 40
0.0
 40
1.0
 40
1.0
 40
1.0
 10
248.5451464653015
 20
248.8417415618899
 30
0.0
 10
248.0080370903015
 20
248.8417415618899
 30
0.0
 10
247.889018535614
 20
248.7520198822024
 30
0.0
  0
LINE
  5
305
330
1F
100
AcDbEntity
  8
APPARENT
100
AcDbLine
 10
281.1568426156862
 20
246.5148729895551
 30
0.0
 11
280.8956121469362
 21
246.5148729895551
 31
0.0
  0
LINE
  5
306
330
1F
100
AcDbEntity
  8
APPARENT
100
AcDbLine
 10
289.0047430063112
 20
248.0712694739301
 30
0.0
 11
288.9815496469362
 21
247.8918261145551
 31
0.0
  0
LINE
  5
307
330
1F
100
AcDbEntity
  8
APPARENT
100
AcDbLine
 10
253.2106738090515
 20
246.8080501556399
 30
0.0
 11
252.9445605278015
 21
246.8080501556399
 31
0.0
  0
LINE
  5
308
330
1F
100
AcDbEntity
  8
APPARENT
100
AcDbLine
 10
277.9048894906862
 20
247.2985643958051
 30
0.0
 11
278.4944891000612
 21
248.7365526770551
 31
0.0
  0
LINE
  5
309
330
1F
100
AcDbEntity
  8
APPARENT
100
AcDbLine
 10
286.4699070453643
 20
214.7563152313235
 30
0.0
 11
286.4699070453643
 21
213.7431316375735
 31
0.0
  0
SPLINE
  5
30A
330
1F
100
AcDbEntity
  8
APPARENT
100
AcDbSpline
210
0.0
220
0.0
230
1.0
 70
     8
 71
     2
 72
     6
 73
     3
 74
     0
 42
0.000000001
 43
0.000001
 12
1.0
 22
0.0
 32
0.0
 13
1.0
 23
0.0
 33
0.0
 40
0.0
 40
0.0
 40
0.0
 40
1.0
 40
1.0
 40
1.0
 10
286.0225652719362
 20
248.5485643958051
 30
0.0
 10
285.4854558969362
 20
248.5485643958051
 30
0.0
 10
285.3664373422487
 20
248.4588427161176
 30
0.0
  0
LINE
  5
30B
330
1F
100
AcDbEntity
  8
APPARENT
100
AcDbLine
 10
271.1195652484893
 20
215.1103191375735
 30
0.0
 11
271.1195652484893
 21
214.1581707000735
 31
0.0
  0
LINE
  5
30C
330
1F
100
AcDbEntity
  8
APPARENT
100
AcDbLine
 10
269.7249578500612
 20
248.5033983801801
 30
0.0
 11
268.9998601938112
 21
248.5033983801801
 31
0.0
  0
LINE
  5
30D
330
1F
100
AcDbEntity
  8
APPARENT
100
AcDbLine
 10
246.0292773246765
 20
246.8080501556399
 30
0.0
 11
246.5932421684265
 21
247.6222591400149
 31
0.0
  0
LINE
  5
30E
330
1F
100
AcDbEntity
  8
APPARENT
100
AcDbLine
 10
251.3075976371765
 20
247.5929622650149
 30
0.0
 11
251.4015917778015
 21
247.3598079681399
 31
0.0
  0
SPLINE
  5
30F
330
1F
100
AcDbEntity
  8
APPARENT
100
AcDbSpline
210
0.0
220
0.0
230
1.0
 70
     8
 71
     2
 72
     6
 73
     3
 74
     0
 42
0.000000001
 43
0.000001
 12
1.0
 22
0.0
 32
0.0
 13
1.0
 23
0.0
 33
0.0
 40
0.0
 40
0.0
 40
0.0
 40
1.0
 40
1.0
 40
1.0
 10
267.0350925922393
 20
215.2214031219485
 30
0.0
 10
267.0350925922393
 20
215.6645183563235
 30
0.0
 10
267.2346775531768
 20
215.826261520386
 30
0.0
  0
LINE
  5
310
330
1F
100
AcDbEntity
  8
APPARENT
100
AcDbLine
 10
276.7464422250612
 20
246.5148729895551
 30
0.0
 11
276.4961980844362
 21
246.5148729895551
 31
0.0
  0
SPLINE
  5
311
330
1F
100
AcDbEntity
  8
APPARENT
100
AcDbSpline
210
0.0
220
0.0
230
1.0
 70
     8
 71
     2
 72
     6
 73
     3
 74
     0
 42
0.000000001
 43
0.000001
 12
1.0
 22
0.0
 32
0.0
 13
1.0
 23
0.0
 33
0.0
 40
0.0
 40
0.0
 40
0.0
 40
1.0
 40
1.0
 40
1.0
 10
285.8998386859893
 20
215.3215007781985
 30
0.0
 10
286.2343113422393
 20
215.3215007781985
 30
0.0
 10
286.3521091938018
 20
215.2043132781985
 30
0.0
  0
SPLINE
  5
312
330
1F
100
AcDbEntity
  8
APPARENT
100
AcDbSpline
210
0.0
220
0.0
230
1.0
 70
     8
 71
     2
 72
     6
 73
     3
 74
     0
 42
0.000000001
 43
0.000001
 12
1.0
 22
0.0
 32
0.0
 13
1.0
 23
0.0
 33
0.0
 40
0.0
 40
0.0
 40
0.0
 40
1.0
 40
1.0
 40
1.0
 10
268.5615818500518
 20
215.677335739136
 30
0.0
 10
268.4376804828643
 20
215.7768230438235
 30
0.0
 10
267.9786961078643
 20
215.7768230438235
 30
0.0
  0
ARC
  5
313
330
1F
100
AcDbEntity
  8
APPARENT
100
AcDbCircle
 10
289.6099536516059
 20
215.7431316375735
 30
0.0
 40
2.0
100
AcDbArc
 50
270.0
 51
0.0
  0
LINE
  5
314
330
1F
100
AcDbEntity
  8
APPARENT
100
AcDbLine
 10
268.7911199594362
 20
248.7365526770551
 30
0.0
 11
268.7911199594362
 21
248.4814257239301
 31
0.0
  0
SPLINE
  5
315
330
1F
100
AcDbEntity
  8
APPARENT
100
AcDbSpline
210
0.0
220
0.0
230
1.0
 70
     8
 71
     2
 72
     6
 73
     3
 74
     0
 42
0.000000001
 43
0.000001
 12
1.0
 22
0.0
 32
0.0
 13
1.0
 23
0.0
 33
0.0
 40
0.0
 40
0.0
 40
0.0
 40
1.0
 40
1.0
 40
1.0
 10
288.0306219125612
 20
247.8375048254926
 30
0.0
 10
287.9573797250612
 20
247.9162401770551
 30
0.0
 10
287.7095769906862
 20
247.9162401770551
 30
0.0
  0
LINE
  5
316
330
1F
100
AcDbEntity
  8
APPARENT
100
AcDbLine
 10
257.5966601371765
 20
246.8080501556399
 30
0.0
 11
257.3464159965515
 21
246.8080501556399
 31
0.0
  0
SPLINE
  5
317
330
1F
100
AcDbEntity
  8
APPARENT
100
AcDbSpline
210
0.0
220
0.0
230
1.0
 70
     8
 71
     2
 72
     6
 73
     3
 74
     0
 42
0.000000001
 43
0.000001
 12
1.0
 22
0.0
 32
0.0
 13
1.0
 23
0.0
 33
0.0
 40
0.0
 40
0.0
 40
0.0
 40
1.0
 40
1.0
 40
1.0
 10
285.3664373422487
 20
248.4588427161176
 30
0.0
 10
285.2474187875612
 20
248.3691210364301
 30
0.0
 10
285.2474187875612
 20
247.9626268958051
 30
0.0
  0
LINE
  5
318
330
1F
100
AcDbEntity
  8
APPARENT
100
AcDbLine
 10
312.3915379047393
 20
215.2995281219485
 30
0.0
 11
312.6112644672393
 21
215.2995281219485
 31
0.0
  0
SPLINE
  5
319
330
1F
100
AcDbEntity
  8
APPARENT
100
AcDbSpline
210
0.0
220
0.0
230
1.0
 70
     8
 71
     2
 72
     6
 73
     3
 74
     0
 42
0.000000001
 43
0.000001
 12
1.0
 22
0.0
 32
0.0
 13
1.0
 23
0.0
 33
0.0
 40
0.0
 40
0.0
 40
0.0
 40
1.0
 40
1.0
 40
1.0
 10
298.6696140766143
 20
214.8551921844485
 30
0.0
 10
298.6696140766143
 20
214.1654949188235
 30
0.0
 10
298.7593357563018
 20
214.0483074188235
 30
0.0
  0
LINE
  5
31A
330
1F
100
AcDbEntity
  8
APPARENT
100
AcDbLine
 10
302.2889988422393
 20
215.6742839813235
 30
0.0
 11
302.5172703266143
 21
215.6742839813235
 31
0.0
  0
SPLINE
  5
31B
330
1F
100
AcDbEntity
  8
APPARENT
100
AcDbSpline
210
0.0
220
0.0
230
1.0
 70
     8
 71
     2
 72
     6
 73
     3
 74
     0
 42
0.000000001
 43
0.000001
 12
1.0
 22
0.0
 32
0.0
 13
1.0
 23
0.0
 33
0.0
 40
0.0
 40
0.0
 40
0.0
 40
1.0
 40
1.0
 40
1.0
 10
271.7989324594362
 20
247.6782030676801
 30
0.0
 10
271.7989324594362
 20
247.9174608801801
 30
0.0
 10
271.5377019906862
 20
247.9174608801801
 30
0.0
  0
LINE
  5
31C
330
1F
100
AcDbEntity
  8
APPARENT
100
AcDbLine
 10
268.7911199594362
 20
248.0712694739301
 30
0.0
 11
268.7911199594362
 21
246.5148729895551
 31
0.0
  0
SPLINE
  5
31D
330
1F
100
AcDbEntity
  8
APPARENT
100
AcDbSpline
210
0.0
220
0.0
230
1.0
 70
     8
 71
     2
 72
     6
 73
     3
 74
     0
 42
0.000000001
 43
0.000001
 12
1.0
 22
0.0
 32
0.0
 13
1.0
 23
0.0
 33
0.0
 40
0.0
 40
0.0
 40
0.0
 40
1.0
 40
1.0
 40
1.0
 10
268.9259617328643
 20
214.8844890594485
 30
0.0
 10
268.9259617328643
 20
214.0910320281985
 30
0.0
 10
268.7745945453643
 20
213.9054851531985
 30
0.0
  0
SPLINE
  5
31E
330
1F
100
AcDbEntity
  8
APPARENT
100
AcDbSpline
210
0.0
220
0.0
230
1.0
 70
     8
 71
     2
 72
     6
 73
     3
 74
     0
 42
0.000000001
 43
0.000001
 12
1.0
 22
0.0
 32
0.0
 13
1.0
 23
0.0
 33
0.0
 40
0.0
 40
0.0
 40
0.0
 40
1.0
 40
1.0
 40
1.0
 10
301.5394871234893
 20
214.015958786011
 30
0.0
 10
301.6395847797393
 20
214.1227703094485
 30
0.0
 10
301.6395847797393
 20
214.4071941375735
 30
0.0
  0
LINE
  5
31F
330
1F
100
AcDbEntity
  8
APPARENT
100
AcDbLine
 10
300.5983250141143
 20
214.2643718719485
 30
0.0
 11
300.5983250141143
 21
215.2995281219485
 31
0.0
  0
LINE
  5
320
330
1F
100
AcDbEntity
  8
APPARENT
100
AcDbLine
 10
281.3851141000612
 20
248.7365526770551
 30
0.0
 11
282.4129461313112
 21
248.7365526770551
 31
0.0
  0
LINE
  5
321
330
1F
100
AcDbEntity
  8
APPARENT
100
AcDbLine
 10
279.9752019906862
 20
248.7365526770551
 30
0.0
 11
280.3267644906862
 21
248.7365526770551
 31
0.0
  0
LINE
  5
322
330
1F
100
AcDbEntity
  8
APPARENT
100
AcDbLine
 10
252.4684863090515
 20
246.8080501556399
 30
0.0
 11
252.4684863090515
 21
248.7196712493899
 31
0.0
  0
SPLINE
  5
323
330
1F
100
AcDbEntity
  8
APPARENT
100
AcDbSpline
210
0.0
220
0.0
230
1.0
 70
     8
 71
     2
 72
     6
 73
     3
 74
     0
 42
0.000000001
 43
0.000001
 12
1.0
 22
0.0
 32
0.0
 13
1.0
 23
0.0
 33
0.0
 40
0.0
 40
0.0
 40
0.0
 40
1.0
 40
1.0
 40
1.0
 10
266.4705633188112
 20
246.7877001379926
 30
0.0
 10
266.5706609750612
 20
246.8945116614301
 30
0.0
 10
266.5706609750612
 20
247.1789354895551
 30
0.0
  0
LINE
  5
324
330
1F
100
AcDbEntity
  8
APPARENT
100
AcDbLine
 10
313.6989109516143
 20
214.7563152313235
 30
0.0
 11
313.6989109516143
 21
213.7431316375735
 31
0.0
  0
LINE
  5
325
330
1F
100
AcDbEntity
  8
APPARENT
100
AcDbLine
 10
285.3822605609893
 20
215.2995281219485
 30
0.0
 11
285.3761570453643
 21
215.0883464813235
 31
0.0
  0
LINE
  5
326
330
1F
100
AcDbEntity
  8
APPARENT
100
AcDbLine
 10
303.5093073844909
 20
214.1431316375735
 30
0.0
 11
311.3086395263671
 21
214.1431316375735
 31
0.0
  0
LINE
  5
327
330
1F
100
AcDbEntity
  8
APPARENT
100
AcDbLine
 10
301.8678562641143
 20
215.2995281219485
 30
0.0
 11
301.8678562641143
 21
213.7431316375735
 31
0.0
  0
LINE
  5
328
330
1F
100
AcDbEntity
  8
APPARENT
100
AcDbLine
 10
251.5920214653015
 20
247.3598079681399
 30
0.0
 11
251.6884570121765
 21
247.5917415618899
 31
0.0
  0
SPLINE
  5
329
330
1F
100
AcDbEntity
  8
APPARENT
100
AcDbSpline
210
0.0
220
0.0
230
1.0
 70
     8
 71
     2
 72
     6
 73
     3
 74
     0
 42
0.000000001
 43
0.000001
 12
1.0
 22
0.0
 32
0.0
 13
1.0
 23
0.0
 33
0.0
 40
0.0
 40
0.0
 40
0.0
 40
1.0
 40
1.0
 40
1.0
 10
300.1722996234893
 20
213.9054851531985
 30
0.0
 10
300.0209324359893
 20
213.7199382781985
 30
0.0
 10
299.3776218891143
 20
213.7199382781985
 30
0.0
  0
LINE
  5
32A
330
1F
100
AcDbEntity
  8
APPARENT
100
AcDbLine
 10
289.8628973031862
 20
247.6635546301801
 30
0.0
 11
289.8604558969362
 21
247.5561327551801
 31
0.0
  0
LINE
  5
32B
330
1F
100
AcDbEntity
  8
APPARENT
100
AcDbLine
 10
264.1304754281862
 20
248.7365526770551
 30
0.0
 11
264.4820379281862
 21
248.7365526770551
 31
0.0
  0
LINE
  5
32C
330
1F
100
AcDbEntity
  8
APPARENT
100
AcDbLine
 10
291.1531805063112
 20
246.5148729895551
 30
0.0
 11
291.1641668344362
 21
246.7162890051801
 31
0.0
  0
LINE
  5
32D
330
1F
100
AcDbEntity
  8
APPARENT
100
AcDbLine
 10
276.7452215219362
 20
248.4765429114301
 30
0.0
 11
276.7464422250612
 21
248.4142870520551
 31
0.0
  0
LINE
  5
32E
330
1F
100
AcDbEntity
  8
APPARENT
100
AcDbLine
 10
283.5628484750612
 20
246.5148729895551
 30
0.0
 11
283.5628484750612
 21
248.7365526770551
 31
0.0
  0
SPLINE
  5
32F
330
1F
100
AcDbEntity
  8
APPARENT
100
AcDbSpline
210
0.0
220
0.0
230
1.0
 70
     8
 71
     2
 72
     6
 73
     3
 74
     0
 42
0.000000001
 43
0.000001
 12
1.0
 22
0.0
 32
0.0
 13
1.0
 23
0.0
 33
0.0
 40
0.0
 40
0.0
 40
0.0
 40
1.0
 40
1.0
 40
1.0
 10
301.1439793109893
 20
213.7199382781985
 30
0.0
 10
300.5983250141143
 20
213.7199382781985
 30
0.0
 10
300.5983250141143
 20
214.2643718719485
 30
0.0
  0
LINE
  5
330
330
1F
100
AcDbEntity
  8
APPARENT
100
AcDbLine
 10
302.2889988422393
 20
215.1103191375735
 30
0.0
 11
302.0741550922393
 21
215.1103191375735
 31
0.0
  0
LINE
  5
331
330
1F
100
AcDbEntity
  8
APPARENT
100
AcDbLine
 10
270.9285711313112
 20
246.5148729895551
 30
0.0
 11
270.9285711313112
 21
248.0712694739301
 31
0.0
  0
LINE
  5
332
330
1F
100
AcDbEntity
  8
APPARENT
100
AcDbLine
 10
267.5252508188112
 20
246.5148729895551
 30
0.0
 11
267.0101141000612
 21
248.0712694739301
 31
0.0
  0
LINE
  5
333
330
1F
100
AcDbEntity
  8
APPARENT
100
AcDbLine
 10
265.5294012094362
 20
247.0361132239301
 30
0.0
 11
265.5294012094362
 21
248.0712694739301
 31
0.0
  0
LINE
  5
334
330
1F
100
AcDbEntity
  8
APPARENT
100
AcDbLine
 10
278.6849187875612
 20
246.5148729895551
 30
0.0
 11
278.6849187875612
 21
248.4264940833051
 31
0.0
  0
SPLINE
  5
335
330
1F
100
AcDbEntity
  8
APPARENT
100
AcDbSpline
210
0.0
220
0.0
230
1.0
 70
     8
 71
     2
 72
     6
 73
     3
 74
     0
 42
0.000000001
 43
0.000001
 12
1.0
 22
0.0
 32
0.0
 13
1.0
 23
0.0
 33
0.0
 40
0.0
 40
0.0
 40
0.0
 40
1.0
 40
1.0
 40
1.0
 10
285.8736394906862
 20
246.7028612708051
 30
0.0
 10
286.3167547250612
 20
246.7028612708051
 30
0.0
 10
286.4266180063112
 20
246.7730517004926
 30
0.0
  0
LINE
  5
336
330
1F
100
AcDbEntity
  8
APPARENT
100
AcDbLine
 10
265.7576726938112
 20
248.0712694739301
 30
0.0
 11
265.7576726938112
 21
247.0361132239301
 31
0.0
  0
LINE
  5
337
330
1F
100
AcDbEntity
  8
APPARENT
100
AcDbLine
 10
249.3044238090515
 20
247.5502376556399
 30
0.0
 11
249.3044238090515
 21
247.4660091400149
 31
0.0
  0
SPLINE
  5
338
330
1F
100
AcDbEntity
  8
APPARENT
100
AcDbSpline
210
0.0
220
0.0
230
1.0
 70
     8
 71
     2
 72
     6
 73
     3
 74
     0
 42
0.000000001
 43
0.000001
 12
1.0
 22
0.0
 32
0.0
 13
1.0
 23
0.0
 33
0.0
 40
0.0
 40
0.0
 40
0.0
 40
1.0
 40
1.0
 40
1.0
 10
271.7775242328643
 20
214.1789226531985
 30
0.0
 10
271.7775242328643
 20
213.7199382781985
 30
0.0
 10
271.3417332172393
 20
213.7199382781985
 30
0.0
  0
LINE
  5
339
330
1F
100
AcDbEntity
  8
APPARENT
100
AcDbLine
 10
267.6949285531862
 20
246.6918749426801
 30
0.0
 11
267.7339910531862
 21
246.8237108801801
 31
0.0
  0
LINE
  5
33A
330
1F
100
AcDbEntity
  8
APPARENT
100
AcDbLine
 10
302.9579441547393
 20
214.1325359344485
 30
0.0
 11
302.9591648578643
 21
214.2082195281985
 31
0.0
  0
SPLINE
  5
33B
330
1F
100
AcDbEntity
  8
APPARENT
100
AcDbSpline
210
0.0
220
0.0
230
1.0
 70
     8
 71
     2
 72
     6
 73
     3
 74
     0
 42
0.000000001
 43
0.000001
 12
1.0
 22
0.0
 32
0.0
 13
1.0
 23
0.0
 33
0.0
 40
0.0
 40
0.0
 40
0.0
 40
1.0
 40
1.0
 40
1.0
 10
274.9355291391237
 20
247.8350634192426
 30
0.0
 10
274.8592351938112
 20
247.9040331458051
 30
0.0
 10
274.6407293344362
 20
247.9040331458051
 30
0.0
  0
LINE
  5
33C
330
1F
100
AcDbEntity
  8
APPARENT
100
AcDbLine
 10
247.3378710746765
 20
248.3644466400149
 30
0.0
 11
246.8324999809265
 21
247.6320247650149
 31
0.0
  0
LINE
  5
33D
330
1F
100
AcDbEntity
  8
APPARENT
100
AcDbLine
 10
272.0125555063112
 20
247.5561327551801
 30
0.0
 11
271.7879461313112
 21
247.5561327551801
 31
0.0
  0
SPLINE
  5
33E
330
1F
100
AcDbEntity
  8
APPARENT
100
AcDbSpline
210
0.0
220
0.0
230
1.0
 70
     8
 71
     2
 72
     6
 73
     3
 74
     0
 42
0.000000001
 43
0.000001
 12
1.0
 22
0.0
 32
0.0
 13
1.0
 23
0.0
 33
0.0
 40
0.0
 40
0.0
 40
0.0
 40
1.0
 40
1.0
 40
1.0
 10
300.8265964984893
 20
214.2643718719485
 30
0.0
 10
300.8265964984893
 20
214.0519695281985
 30
0.0
 10
300.8967869281768
 20
213.980558395386
 30
0.0
  0
LINE
  5
33F
330
1F
100
AcDbEntity
  8
APPARENT
100
AcDbLine
 10
280.8956121469362
 20
246.5148729895551
 30
0.0
 11
280.7222723031862
 21
246.9848436926801
 31
0.0
  0
LINE
  5
340
330
1F
100
AcDbEntity
  8
APPARENT
100
AcDbLine
 10
288.1038641000612
 20
247.3022265051801
 30
0.0
 11
288.1038641000612
 21
247.4914354895551
 31
0.0
  0
SPLINE
  5
341
330
1F
100
AcDbEntity
  8
APPARENT
100
AcDbSpline
210
0.0
220
0.0
230
1.0
 70
     8
 71
     2
 72
     6
 73
     3
 74
     0
 42
0.000000001
 43
0.000001
 12
1.0
 22
0.0
 32
0.0
 13
1.0
 23
0.0
 33
0.0
 40
0.0
 40
0.0
 40
0.0
 40
1.0
 40
1.0
 40
1.0
 10
302.5172703266143
 20
214.1581707000735
 30
0.0
 10
302.5172703266143
 20
213.9091472625735
 30
0.0
 10
302.7382175922393
 20
213.9091472625735
 30
0.0
  0
SPLINE
  5
342
330
1F
100
AcDbEntity
  8
APPARENT
100
AcDbSpline
210
0.0
220
0.0
230
1.0
 70
     8
 71
     2
 72
     6
 73
     3
 74
     0
 42
0.000000001
 43
0.000001
 12
1.0
 22
0.0
 32
0.0
 13
1.0
 23
0.0
 33
0.0
 40
0.0
 40
0.0
 40
0.0
 40
1.0
 40
1.0
 40
1.0
 10
282.4129461313112
 20
248.7365526770551
 30
0.0
 10
282.8902410531862
 20
248.7365526770551
 30
0.0
 10
283.0599187875612
 20
248.5265917395551
 30
0.0
  0
LINE
  5
343
330
1F
100
AcDbEntity
  8
APPARENT
100
AcDbLine
 10
263.7532781625612
 20
246.9848436926801
 30
0.0
 11
263.5823797250612
 21
246.5148729895551
 31
0.0
  0
SPLINE
  5
344
330
1F
100
AcDbEntity
  8
APPARENT
100
AcDbSpline
210
0.0
220
0.0
230
1.0
 70
     8
 71
     2
 72
     6
 73
     3
 74
     0
 42
0.000000001
 43
0.000001
 12
1.0
 22
0.0
 32
0.0
 13
1.0
 23
0.0
 33
0.0
 40
0.0
 40
0.0
 40
0.0
 40
1.0
 40
1.0
 40
1.0
 10
272.1785711313112
 20
246.9653124426801
 30
0.0
 10
272.1785711313112
 20
247.2472948645551
 30
0.0
 10
272.3104070688112
 20
247.3547167395551
 30
0.0
  0
SPLINE
  5
345
330
1F
100
AcDbEntity
  8
APPARENT
100
AcDbSpline
210
0.0
220
0.0
230
1.0
 70
     8
 71
     2
 72
     6
 73
     3
 74
     0
 42
0.000000001
 43
0.000001
 12
1.0
 22
0.0
 32
0.0
 13
1.0
 23
0.0
 33
0.0
 40
0.0
 40
0.0
 40
0.0
 40
1.0
 40
1.0
 40
1.0
 10
248.3962206840515
 20
246.9960384368899
 30
0.0
 10
248.8393359184265
 20
246.9960384368899
 30
0.0
 10
248.9491991996765
 20
247.0662288665774
 30
0.0
  0
SPLINE
  5
346
330
1F
100
AcDbEntity
  8
APPARENT
100
AcDbSpline
210
0.0
220
0.0
230
1.0
 70
     8
 71
     2
 72
     6
 73
     3
 74
     0
 42
0.000000001
 43
0.000001
 12
1.0
 22
0.0
 32
0.0
 13
1.0
 23
0.0
 33
0.0
 40
0.0
 40
0.0
 40
0.0
 40
1.0
 40
1.0
 40
1.0
 10
269.4288914203643
 20
214.2643718719485
 30
0.0
 10
269.4288914203643
 20
214.0519695281985
 30
0.0
 10
269.4990818500518
 20
213.980558395386
 30
0.0
  0
LINE
  5
347
330
1F
100
AcDbEntity
  8
APPARENT
100
AcDbLine
 10
254.9404101371765
 20
246.8080501556399
 30
0.0
 11
254.6791796684265
 21
246.8080501556399
 31
0.0
  0
SPLINE
  5
348
330
1F
100
AcDbEntity
  8
APPARENT
100
AcDbSpline
210
0.0
220
0.0
230
1.0
 70
     8
 71
     2
 72
     6
 73
     3
 74
     0
 42
0.000000001
 43
0.000001
 12
1.0
 22
0.0
 32
0.0
 13
1.0
 23
0.0
 33
0.0
 40
0.0
 40
0.0
 40
0.0
 40
1.0
 40
1.0
 40
1.0
 10
268.7678806781768
 20
215.804288864136
 30
0.0
 10
268.9259617328643
 20
215.6205730438235
 30
0.0
 10
268.9259617328643
 20
214.8844890594485
 30
0.0
  0
LINE
  5
349
330
1F
100
AcDbEntity
  8
APPARENT
100
AcDbLine
 10
301.6395847797393
 20
214.4071941375735
 30
0.0
 11
301.6395847797393
 21
215.2995281219485
 31
0.0
  0
SPLINE
  5
34A
330
1F
100
AcDbEntity
  8
APPARENT
100
AcDbSpline
210
0.0
220
0.0
230
1.0
 70
     8
 71
     2
 72
     6
 73
     3
 74
     0
 42
0.000000001
 43
0.000001
 12
1.0
 22
0.0
 32
0.0
 13
1.0
 23
0.0
 33
0.0
 40
0.0
 40
0.0
 40
0.0
 40
1.0
 40
1.0
 40
1.0
 10
290.7015203500612
 20
246.6808886145551
 30
0.0
 10
290.9822820688112
 20
246.6808886145551
 30
0.0
 10
291.0671209359987
 20
246.8035692786176
 30
0.0
  0
LINE
  5
34B
330
1F
100
AcDbEntity
  8
APPARENT
100
AcDbLine
 10
252.4257616996765
 20
248.7501888275149
 30
0.0
 11
252.3842577934265
 21
248.6464290618899
 31
0.0
  0
LINE
  5
34C
330
1F
100
AcDbEntity
  8
APPARENT
100
AcDbLine
 10
269.2006199359893
 20
214.2643718719485
 30
0.0
 11
269.2006199359893
 21
215.2995281219485
 31
0.0
  0
LINE
  5
34D
330
1F
100
AcDbEntity
  8
APPARENT
100
AcDbLine
 10
288.7764715219362
 20
248.0712694739301
 30
0.0
 11
289.0047430063112
 21
248.0712694739301
 31
0.0
  0
LINE
  5
34E
330
1F
100
AcDbEntity
  8
APPARENT
100
AcDbLine
 10
276.7696355844362
 20
248.4863085364301
 30
0.0
 11
276.7501043344362
 21
248.5363573645551
 31
0.0
  0
SPLINE
  5
34F
330
1F
100
AcDbEntity
  8
APPARENT
100
AcDbSpline
210
0.0
220
0.0
230
1.0
 70
     8
 71
     2
 72
     6
 73
     3
 74
     0
 42
0.000000001
 43
0.000001
 12
1.0
 22
0.0
 32
0.0
 13
1.0
 23
0.0
 33
0.0
 40
0.0
 40
0.0
 40
0.0
 40
1.0
 40
1.0
 40
1.0
 10
286.4266180063112
 20
246.7730517004926
 30
0.0
 10
286.5364812875612
 20
246.8432421301801
 30
0.0
 10
286.5364812875612
 20
247.1252245520551
 30
0.0
  0
SPLINE
  5
350
330
1F
100
AcDbEntity
  8
APPARENT
100
AcDbSpline
210
0.0
220
0.0
230
1.0
 70
     8
 71
     2
 72
     6
 73
     3
 74
     0
 42
0.000000001
 43
0.000001
 12
1.0
 22
0.0
 32
0.0
 13
1.0
 23
0.0
 33
0.0
 40
0.0
 40
0.0
 40
0.0
 40
1.0
 40
1.0
 40
1.0
 10
288.0214666391237
 20
247.2216600989301
 30
0.0
 10
287.9280828500612
 20
247.2851366614301
 30
0.0
 10
287.6583074594362
 20
247.2851366614301
 30
0.0
  0
SPLINE
  5
351
330
1F
100
AcDbEntity
  8
APPARENT
100
AcDbSpline
210
0.0
220
0.0
230
1.0
 70
     8
 71
     2
 72
     6
 73
     3
 74
     0
 42
0.000000001
 43
0.000001
 12
1.0
 22
0.0
 32
0.0
 13
1.0
 23
0.0
 33
0.0
 40
0.0
 40
0.0
 40
0.0
 40
1.0
 40
1.0
 40
1.0
 10
267.3616306781768
 20
214.0483074188235
 30
0.0
 10
267.4513523578643
 20
213.9311199188235
 30
0.0
 10
267.9786961078643
 20
213.9311199188235
 30
0.0
  0
LINE
  5
352
330
1F
100
AcDbEntity
  8
APPARENT
100
AcDbLine
 10
270.4701511859893
 20
213.7431316375735
 30
0.0
 11
270.2418797016143
 21
213.7431316375735
 31
0.0
  0
SPLINE
  5
353
330
1F
100
AcDbEntity
  8
APPARENT
100
AcDbSpline
210
0.0
220
0.0
230
1.0
 70
     8
 71
     2
 72
     6
 73
     3
 74
     0
 42
0.000000001
 43
0.000001
 12
1.0
 22
0.0
 32
0.0
 13
1.0
 23
0.0
 33
0.0
 40
0.0
 40
0.0
 40
0.0
 40
1.0
 40
1.0
 40
1.0
 10
287.3165105844362
 20
246.7419237708051
 30
0.0
 10
287.3946355844362
 20
246.6808886145551
 30
0.0
 10
287.6338933969362
 20
246.6808886145551
 30
0.0
  0
SPLINE
  5
354
330
1F
100
AcDbEntity
  8
APPARENT
100
AcDbSpline
210
0.0
220
0.0
230
1.0
 70
     8
 71
     2
 72
     6
 73
     3
 74
     0
 42
0.000000001
 43
0.000001
 12
1.0
 22
0.0
 32
0.0
 13
1.0
 23
0.0
 33
0.0
 40
0.0
 40
0.0
 40
0.0
 40
1.0
 40
1.0
 40
1.0
 10
273.3748601938112
 20
247.9784960364301
 30
0.0
 10
273.5115789438112
 20
247.8637499426801
 30
0.0
 10
273.5115789438112
 20
247.5414843176801
 30
0.0
  0
SPLINE
  5
355
330
1F
100
AcDbEntity
  8
APPARENT
100
AcDbSpline
210
0.0
220
0.0
230
1.0
 70
     8
 71
     2
 72
     6
 73
     3
 74
     0
 42
0.000000001
 43
0.000001
 12
1.0
 22
0.0
 32
0.0
 13
1.0
 23
0.0
 33
0.0
 40
0.0
 40
0.0
 40
0.0
 40
1.0
 40
1.0
 40
1.0
 10
273.2009099984987
 20
247.2216600989301
 30
0.0
 10
273.1075262094362
 20
247.2851366614301
 30
0.0
 10
272.8377508188112
 20
247.2851366614301
 30
0.0
  0
SPLINE
  5
356
330
1F
100
AcDbEntity
  8
APPARENT
100
AcDbSpline
210
0.0
220
0.0
230
1.0
 70
     8
 71
     2
 72
     6
 73
     3
 74
     0
 42
0.000000001
 43
0.000001
 12
1.0
 22
0.0
 32
0.0
 13
1.0
 23
0.0
 33
0.0
 40
0.0
 40
0.0
 40
0.0
 40
1.0
 40
1.0
 40
1.0
 10
267.2719089984893
 20
214.8551921844485
 30
0.0
 10
267.2719089984893
 20
214.1654949188235
 30
0.0
 10
267.3616306781768
 20
214.0483074188235
 30
0.0
  0
SPLINE
  5
357
330
1F
100
AcDbEntity
  8
APPARENT
100
AcDbSpline
210
0.0
220
0.0
230
1.0
 70
     8
 71
     2
 72
     6
 73
     3
 74
     0
 42
0.000000001
 43
0.000001
 12
1.0
 22
0.0
 32
0.0
 13
1.0
 23
0.0
 33
0.0
 40
0.0
 40
0.0
 40
0.0
 40
1.0
 40
1.0
 40
1.0
 10
298.6323826313018
 20
215.826261520386
 30
0.0
 10
298.8319675922393
 20
215.9880046844485
 30
0.0
 10
299.3776218891143
 20
215.9880046844485
 30
0.0
  0
LINE
  5
358
330
1F
100
AcDbEntity
  8
APPARENT
100
AcDbLine
 10
266.5706609750612
 20
248.0712694739301
 30
0.0
 11
266.7989324594362
 21
248.0712694739301
 31
0.0
  0
LINE
  5
359
330
1F
100
AcDbEntity
  8
APPARENT
100
AcDbLine
 10
266.7989324594362
 20
246.5148729895551
 30
0.0
 11
266.5706609750612
 21
246.5148729895551
 31
0.0
  0
LINE
  5
35A
330
1F
100
AcDbEntity
  8
APPARENT
100
AcDbLine
 10
269.2006199359893
 20
215.2995281219485
 30
0.0
 11
269.4288914203643
 21
215.2995281219485
 31
0.0
  0
LINE
  5
35B
330
1F
100
AcDbEntity
  8
APPARENT
100
AcDbLine
 10
302.5172703266143
 20
215.6742839813235
 30
0.0
 11
302.5172703266143
 21
215.2995281219485
 31
0.0
  0
SPLINE
  5
35C
330
1F
100
AcDbEntity
  8
APPARENT
100
AcDbSpline
210
0.0
220
0.0
230
1.0
 70
     8
 71
     2
 72
     6
 73
     3
 74
     0
 42
0.000000001
 43
0.000001
 12
1.0
 22
0.0
 32
0.0
 13
1.0
 23
0.0
 33
0.0
 40
0.0
 40
0.0
 40
0.0
 40
1.0
 40
1.0
 40
1.0
 10
287.6070379281862
 20
247.4621386145551
 30
0.0
 10
288.0171941781862
 20
247.4621386145551
 30
0.0
 10
288.0989812875612
 20
247.3010058020551
 30
0.0
  0
SPLINE
  5
35D
330
1F
100
AcDbEntity
  8
APPARENT
100
AcDbSpline
210
0.0
220
0.0
230
1.0
 70
     8
 71
     2
 72
     6
 73
     3
 74
     0
 42
0.000000001
 43
0.000001
 12
1.0
 22
0.0
 32
0.0
 13
1.0
 23
0.0
 33
0.0
 40
0.0
 40
0.0
 40
0.0
 40
1.0
 40
1.0
 40
1.0
 10
266.0750555063112
 20
246.4916796301801
 30
0.0
 10
265.5294012094362
 20
246.4916796301801
 30
0.0
 10
265.5294012094362
 20
247.0361132239301
 30
0.0
  0
LINE
  5
35E
330
1F
100
AcDbEntity
  8
APPARENT
100
AcDbLine
 10
311.7238132953643
 20
215.9648113250735
 30
0.0
 11
311.9740574359893
 21
215.9648113250735
 31
0.0
  0
LINE
  5
35F
330
1F
100
AcDbEntity
  8
APPARENT
100
AcDbLine
 10
251.4015917778015
 20
247.3598079681399
 30
0.0
 11
251.4491991996765
 21
247.2438411712649
 31
0.0
  0
LINE
  5
360
330
1F
100
AcDbEntity
  8
APPARENT
100
AcDbLine
 10
267.7339910531862
 20
246.8237108801801
 30
0.0
 11
267.7730535531862
 21
246.9579882239301
 31
0.0
  0
SPLINE
  5
361
330
1F
100
AcDbEntity
  8
APPARENT
100
AcDbSpline
210
0.0
220
0.0
230
1.0
 70
     8
 71
     2
 72
     6
 73
     3
 74
     0
 42
0.000000001
 43
0.000001
 12
1.0
 22
0.0
 32
0.0
 13
1.0
 23
0.0
 33
0.0
 40
0.0
 40
0.0
 40
0.0
 40
1.0
 40
1.0
 40
1.0
 10
285.3273748422487
 20
246.8639940833051
 30
0.0
 10
285.4073308969362
 20
246.7028612708051
 30
0.0
 10
285.8736394906862
 20
246.7028612708051
 30
0.0
  0
LINE
  5
362
330
1F
100
AcDbEntity
  8
APPARENT
100
AcDbLine
 10
249.0273241996765
 20
248.3510189056399
 30
0.0
 11
249.0261034965515
 21
248.4193782806399
 31
0.0
  0
LINE
  5
363
330
1F
100
AcDbEntity
  8
APPARENT
100
AcDbLine
 10
250.5300097465515
 20
248.7074642181399
 30
0.0
 11
250.5300097465515
 21
246.8080501556399
 31
0.0
  0
SPLINE
  5
364
330
1F
100
AcDbEntity
  8
APPARENT
100
AcDbSpline
210
0.0
220
0.0
230
1.0
 70
     8
 71
     2
 72
     6
 73
     3
 74
     0
 42
0.000000001
 43
0.000001
 12
1.0
 22
0.0
 32
0.0
 13
1.0
 23
0.0
 33
0.0
 40
0.0
 40
0.0
 40
0.0
 40
1.0
 40
1.0
 40
1.0
 10
286.9991277719362
 20
246.9653124426801
 30
0.0
 10
286.9991277719362
 20
247.2472948645551
 30
0.0
 10
287.1309637094362
 20
247.3547167395551
 30
0.0
  0
LINE
  5
365
330
1F
100
AcDbEntity
  8
APPARENT
100
AcDbLine
 10
302.0741550922393
 20
215.1103191375735
 30
0.0
 11
302.0741550922393
 21
215.2995281219485
 31
0.0
  0
LINE
  5
366
330
1F
100
AcDbEntity
  8
APPARENT
100
AcDbLine
 10
267.8560613656862
 20
247.2216600989301
 30
0.0
 11
268.1197332406862
 21
248.0712694739301
 31
0.0
  0
LINE
  5
367
330
1F
100
AcDbEntity
  8
APPARENT
100
AcDbLine
 10
269.7249578500612
 20
246.5148729895551
 30
0.0
 11
269.7249578500612
 21
248.5033983801801
 31
0.0
  0
SPLINE
  5
368
330
1F
100
AcDbEntity
  8
APPARENT
100
AcDbSpline
210
0.0
220
0.0
230
1.0
 70
     8
 71
     2
 72
     6
 73
     3
 74
     0
 42
0.000000001
 43
0.000001
 12
1.0
 22
0.0
 32
0.0
 13
1.0
 23
0.0
 33
0.0
 40
0.0
 40
0.0
 40
0.0
 40
1.0
 40
1.0
 40
1.0
 10
298.7593357563018
 20
215.6596355438235
 30
0.0
 10
298.6696140766143
 20
215.5424480438235
 30
0.0
 10
298.6696140766143
 20
214.8551921844485
 30
0.0
  0
LINE
  5
369
330
1F
100
AcDbEntity
  8
APPARENT
100
AcDbLine
 10
275.2400945688112
 20
247.5280565833051
 30
0.0
 11
275.2400945688112
 21
246.5148729895551
 31
0.0
  0
SPLINE
  5
36A
330
1F
100
AcDbEntity
  8
APPARENT
100
AcDbSpline
210
0.0
220
0.0
230
1.0
 70
     8
 71
     2
 72
     6
 73
     3
 74
     0
 42
0.000000001
 43
0.000001
 12
1.0
 22
0.0
 32
0.0
 13
1.0
 23
0.0
 33
0.0
 40
0.0
 40
0.0
 40
0.0
 40
1.0
 40
1.0
 40
1.0
 10
313.4706394672393
 20
214.7953777313235
 30
0.0
 10
313.4706394672393
 20
214.9943523406985
 30
0.0
 10
313.3943455219268
 20
215.063322067261
 30
0.0
  0
LINE
  5
36B
330
1F
100
AcDbEntity
  8
APPARENT
100
AcDbLine
 10
276.7891668344362
 20
248.4338183020551
 30
0.0
 11
276.7696355844362
 21
248.4863085364301
 31
0.0
  0
SPLINE
  5
36C
330
1F
100
AcDbEntity
  8
APPARENT
100
AcDbSpline
210
0.0
220
0.0
230
1.0
 70
     8
 71
     2
 72
     6
 73
     3
 74
     0
 42
0.000000001
 43
0.000001
 12
1.0
 22
0.0
 32
0.0
 13
1.0
 23
0.0
 33
0.0
 40
0.0
 40
0.0
 40
0.0
 40
1.0
 40
1.0
 40
1.0
 10
272.7864812875612
 20
247.4621386145551
 30
0.0
 10
273.1966375375612
 20
247.4621386145551
 30
0.0
 10
273.2784246469362
 20
247.3010058020551
 30
0.0
  0
LINE
  5
36D
330
1F
100
AcDbEntity
  8
APPARENT
100
AcDbLine
 10
300.8265964984893
 20
215.2995281219485
 30
0.0
 11
300.8265964984893
 21
214.2643718719485
 31
0.0
  0
SPLINE
  5
36E
330
1F
100
AcDbEntity
  8
APPARENT
100
AcDbSpline
210
0.0
220
0.0
230
1.0
 70
     8
 71
     2
 72
     6
 73
     3
 74
     0
 42
0.000000001
 43
0.000001
 12
1.0
 22
0.0
 32
0.0
 13
1.0
 23
0.0
 33
0.0
 40
0.0
 40
0.0
 40
0.0
 40
1.0
 40
1.0
 40
1.0
 10
267.9799168109893
 20
213.7199382781985
 30
0.0
 10
267.3402683734893
 20
213.7199382781985
 30
0.0
 10
267.1864597797393
 20
213.903654098511
 30
0.0
  0
LINE
  5
36F
330
1F
100
AcDbEntity
  8
APPARENT
100
AcDbLine
 10
270.4701511859893
 20
215.2995281219485
 30
0.0
 11
270.4701511859893
 21
213.7431316375735
 31
0.0
  0
LINE
  5
370
330
1F
100
AcDbEntity
  8
APPARENT
100
AcDbLine
 10
278.6812566781862
 20
248.5595507239301
 30
0.0
 11
278.6617254281862
 21
248.5070604895551
 31
0.0
  0
SPLINE
  5
371
330
1F
100
AcDbEntity
  8
APPARENT
100
AcDbSpline
210
0.0
220
0.0
230
1.0
 70
     8
 71
     2
 72
     6
 73
     3
 74
     0
 42
0.000000001
 43
0.000001
 12
1.0
 22
0.0
 32
0.0
 13
1.0
 23
0.0
 33
0.0
 40
0.0
 40
0.0
 40
0.0
 40
1.0
 40
1.0
 40
1.0
 10
288.1172918344362
 20
246.6845507239301
 30
0.0
 10
287.9866766000612
 20
246.4916796301801
 30
0.0
 10
287.5887273813112
 20
246.4916796301801
 30
0.0
  0
SPLINE
  5
372
330
1F
100
AcDbEntity
  8
APPARENT
100
AcDbSpline
210
0.0
220
0.0
230
1.0
 70
     8
 71
     2
 72
     6
 73
     3
 74
     0
 42
0.000000001
 43
0.000001
 12
1.0
 22
0.0
 32
0.0
 13
1.0
 23
0.0
 33
0.0
 40
0.0
 40
0.0
 40
0.0
 40
1.0
 40
1.0
 40
1.0
 10
271.3417332172393
 20
213.7199382781985
 30
0.0
 10
270.8912937641143
 20
213.7199382781985
 30
0.0
 10
270.8912937641143
 20
214.1032390594485
 30
0.0
  0
SPLINE
  5
373
330
1F
100
AcDbEntity
  8
APPARENT
100
AcDbSpline
210
0.0
220
0.0
230
1.0
 70
     8
 71
     2
 72
     6
 73
     3
 74
     0
 42
0.000000001
 43
0.000001
 12
1.0
 22
0.0
 32
0.0
 13
1.0
 23
0.0
 33
0.0
 40
0.0
 40
0.0
 40
0.0
 40
1.0
 40
1.0
 40
1.0
 10
271.3405125141143
 20
213.9091472625735
 30
0.0
 10
271.5602390766143
 20
213.9091472625735
 30
0.0
 10
271.5602390766143
 20
214.1325359344485
 30
0.0
  0
SPLINE
  5
374
330
1F
100
AcDbEntity
  8
APPARENT
100
AcDbSpline
210
0.0
220
0.0
230
1.0
 70
     8
 71
     2
 72
     6
 73
     3
 74
     0
 42
0.000000001
 43
0.000001
 12
1.0
 22
0.0
 32
0.0
 13
1.0
 23
0.0
 33
0.0
 40
0.0
 40
0.0
 40
0.0
 40
1.0
 40
1.0
 40
1.0
 10
290.1699041391237
 20
246.6656298254926
 30
0.0
 10
290.0386785531862
 20
246.8395800208051
 30
0.0
 10
290.0386785531862
 20
247.3156542395551
 30
0.0
  0
LINE
  5
375
330
1F
100
AcDbEntity
  8
APPARENT
100
AcDbLine
 10
284.7450535297393
 20
213.7431316375735
 30
0.0
 11
284.4948093891143
 21
213.7431316375735
 31
0.0
  0
LINE
  5
376
330
1F
100
AcDbEntity
  8
APPARENT
100
AcDbLine
 10
267.0326511859893
 20
214.8551921844485
 30
0.0
 11
267.0326511859893
 21
215.0114421844485
 31
0.0
  0
LINE
  5
377
330
1F
100
AcDbEntity
  8
APPARENT
100
AcDbLine
 10
257.5966601371765
 20
249.0297298431399
 30
0.0
 11
257.5966601371765
 21
246.8080501556399
 31
0.0
  0
LINE
  5
378
330
1F
100
AcDbEntity
  8
APPARENT
100
AcDbLine
 10
252.9445605278015
 20
246.8080501556399
 30
0.0
 11
253.7587695121765
 21
249.0297298431399
 31
0.0
  0
LINE
  5
379
330
1F
100
AcDbEntity
  8
APPARENT
100
AcDbLine
 10
244.4643359184265
 20
247.2780208587649
 30
0.0
 11
244.2934374809265
 21
246.8080501556399
 31
0.0
  0
SPLINE
  5
37A
330
1F
100
AcDbEntity
  8
APPARENT
100
AcDbSpline
210
0.0
220
0.0
230
1.0
 70
     8
 71
     2
 72
     6
 73
     3
 74
     0
 42
0.000000001
 43
0.000001
 12
1.0
 22
0.0
 32
0.0
 13
1.0
 23
0.0
 33
0.0
 40
0.0
 40
0.0
 40
0.0
 40
1.0
 40
1.0
 40
1.0
 10
299.3776218891143
 20
213.7199382781985
 30
0.0
 10
298.7379734516143
 20
213.7199382781985
 30
0.0
 10
298.5841648578643
 20
213.903654098511
 30
0.0
  0
LINE
  5
37B
330
1F
100
AcDbEntity
  8
APPARENT
100
AcDbLine
 10
246.3613085746765
 20
248.3644466400149
 30
0.0
 11
246.7140917778015
 21
247.7968196868899
 31
0.0
  0
LINE
  5
37C
330
1F
100
AcDbEntity
  8
APPARENT
100
AcDbLine
 10
278.6849187875612
 20
248.4264940833051
 30
0.0
 11
278.6861394906862
 21
248.4924120520551
 31
0.0
  0
LINE
  5
37D
330
1F
100
AcDbEntity
  8
APPARENT
100
AcDbLine
 10
246.8324999809265
 20
247.6320247650149
 30
0.0
 11
247.3976855278015
 21
246.8080501556399
 31
0.0
  0
SPLINE
  5
37E
330
1F
100
AcDbEntity
  8
APPARENT
100
AcDbSpline
210
0.0
220
0.0
230
1.0
 70
     8
 71
     2
 72
     6
 73
     3
 74
     0
 42
0.000000001
 43
0.000001
 12
1.0
 22
0.0
 32
0.0
 13
1.0
 23
0.0
 33
0.0
 40
0.0
 40
0.0
 40
0.0
 40
1.0
 40
1.0
 40
1.0
 10
266.5816473031862
 20
246.7236132239301
 30
0.0
 10
266.4632391000612
 20
246.4916796301801
 30
0.0
 10
266.0750555063112
 20
246.4916796301801
 30
0.0
  0
LINE
  5
37F
330
1F
100
AcDbEntity
  8
APPARENT
100
AcDbLine
 10
286.4699070453643
 20
213.7431316375735
 30
0.0
 11
286.2416355609893
 21
213.7431316375735
 31
0.0
  0
LINE
  5
380
330
1F
100
AcDbEntity
  8
APPARENT
100
AcDbLine
 10
254.5058398246765
 20
247.2780208587649
 30
0.0
 11
253.3815722465515
 21
247.2780208587649
 31
0.0
  0
LINE
  5
381
330
1F
100
AcDbEntity
  8
APPARENT
100
AcDbLine
 10
276.9307683969362
 20
248.7365526770551
 30
0.0
 11
277.5240301156862
 21
247.2997850989301
 31
0.0
  0
LINE
  5
382
330
1F
100
AcDbEntity
  8
APPARENT
100
AcDbLine
 10
251.5004687309265
 20
247.1290950775149
 30
0.0
 11
251.5468554496765
 21
247.2438411712649
 31
0.0
  0
LINE
  5
383
330
1F
100
AcDbEntity
  8
APPARENT
100
AcDbLine
 10
291.2099536516059
 20
215.7431316375735
 30
0.0
 11
291.2099536516059
 21
217.8111483167541
 31
0.0
  0
LINE
  5
384
330
1F
100
AcDbEntity
  8
APPARENT
100
AcDbLine
 10
271.1336492563112
 20
247.8918261145551
 30
0.0
 11
271.1385320688112
 21
247.8869433020551
 31
0.0
  0
SPLINE
  5
385
330
1F
100
AcDbEntity
  8
APPARENT
100
AcDbSpline
210
0.0
220
0.0
230
1.0
 70
     8
 71
     2
 72
     6
 73
     3
 74
     0
 42
0.000000001
 43
0.000001
 12
1.0
 22
0.0
 32
0.0
 13
1.0
 23
0.0
 33
0.0
 40
0.0
 40
0.0
 40
0.0
 40
1.0
 40
1.0
 40
1.0
 10
286.3521091938018
 20
215.2043132781985
 30
0.0
 10
286.4699070453643
 20
215.0871257781985
 30
0.0
 10
286.4699070453643
 20
214.7563152313235
 30
0.0
  0
LINE
  5
386
330
1F
100
AcDbEntity
  8
APPARENT
100
AcDbLine
 10
303.1740086078643
 20
214.2948894500735
 30
0.0
 11
303.1752293109893
 21
214.1789226531985
 31
0.0
  0
LINE
  5
387
330
1F
100
AcDbEntity
  8
APPARENT
100
AcDbLine
 10
301.6395847797393
 20
213.7431316375735
 30
0.0
 11
301.6554539203643
 21
213.9469890594485
 31
0.0
  0
LINE
  5
388
330
1F
100
AcDbEntity
  8
APPARENT
100
AcDbLine
 10
275.2400945688112
 20
246.5148729895551
 30
0.0
 11
275.0118230844362
 21
246.5148729895551
 31
0.0
  0
LINE
  5
389
330
1F
100
AcDbEntity
  8
APPARENT
100
AcDbLine
 10
250.0685839653015
 20
247.5111751556399
 30
0.0
 11
249.3764452934265
 21
247.5111751556399
 31
0.0
  0
LINE
  5
38A
330
1F
100
AcDbEntity
  8
APPARENT
100
AcDbLine
 10
267.0101141000612
 20
248.0712694739301
 30
0.0
 11
267.2444891000612
 21
248.0712694739301
 31
0.0
  0
SPLINE
  5
38B
330
1F
100
AcDbEntity
  8
APPARENT
100
AcDbSpline
210
0.0
220
0.0
230
1.0
 70
     8
 71
     2
 72
     6
 73
     3
 74
     0
 42
0.000000001
 43
0.000001
 12
1.0
 22
0.0
 32
0.0
 13
1.0
 23
0.0
 33
0.0
 40
0.0
 40
0.0
 40
0.0
 40
1.0
 40
1.0
 40
1.0
 10
256.6579394340515
 20
247.1785335540774
 30
0.0
 10
256.7739062309265
 20
247.3378353118899
 30
0.0
 10
256.7739062309265
 20
247.8908138275149
 30
0.0
  0
CIRCLE
  5
38C
330
1F
100
AcDbEntity
  8
APPARENT
100
AcDbCircle
 10
291.4099536516059
 20
218.7909442138674
 30
0.0
 40
0.6000000000000227
  0
LINE
  5
38D
330
1F
100
AcDbEntity
  8
APPARENT
100
AcDbLine
 10
266.5706609750612
 20
246.5148729895551
 30
0.0
 11
266.5865301156862
 21
246.7187304114301
 31
0.0
  0
LINE
  5
38E
330
1F
100
AcDbEntity
  8
APPARENT
100
AcDbLine
 10
284.4948093891143
 20
213.7431316375735
 30
0.0
 11
284.4948093891143
 21
215.9648113250735
 31
0.0
  0
LINE
  5
38F
330
1F
100
AcDbEntity
  8
APPARENT
100
AcDbLine
 10
274.1609930063112
 20
246.5148729895551
 30
0.0
 11
273.9327215219362
 21
246.5148729895551
 31
0.0
  0
SPLINE
  5
390
330
1F
100
AcDbEntity
  8
APPARENT
100
AcDbSpline
210
0.0
220
0.0
230
1.0
 70
     8
 71
     2
 72
     6
 73
     3
 74
     0
 42
0.000000001
 43
0.000001
 12
1.0
 22
0.0
 32
0.0
 13
1.0
 23
0.0
 33
0.0
 40
0.0
 40
0.0
 40
0.0
 40
1.0
 40
1.0
 40
1.0
 10
285.8492254281862
 20
246.4916796301801
 30
0.0
 10
285.2901433969362
 20
246.4916796301801
 30
0.0
 10
285.1387762094362
 20
246.6912645911176
 30
0.0
  0
LINE
  5
391
330
1F
100
AcDbEntity
  8
APPARENT
100
AcDbLine
 10
282.4105047250612
 20
248.5253710364301
 30
0.0
 11
281.6353582406862
 21
248.5253710364301
 31
0.0
  0
LINE
  5
392
330
1F
100
AcDbEntity
  8
APPARENT
100
AcDbLine
 10
264.8043035531862
 20
247.1740526770551
 30
0.0
 11
264.3111394906862
 21
248.5314745520551
 31
0.0
  0
SPLINE
  5
393
330
1F
100
AcDbEntity
  8
APPARENT
100
AcDbSpline
210
0.0
220
0.0
230
1.0
 70
     8
 71
     2
 72
     6
 73
     3
 74
     0
 42
0.000000001
 43
0.000001
 12
1.0
 22
0.0
 32
0.0
 13
1.0
 23
0.0
 33
0.0
 40
0.0
 40
0.0
 40
0.0
 40
1.0
 40
1.0
 40
1.0
 10
302.7382175922393
 20
213.9091472625735
 30
0.0
 10
302.9579441547393
 20
213.9091472625735
 30
0.0
 10
302.9579441547393
 20
214.1325359344485
 30
0.0
  0
LINE
  5
394
330
1F
100
AcDbEntity
  8
APPARENT
100
AcDbLine
 10
254.1103320121765
 20
249.0297298431399
 30
0.0
 11
254.9404101371765
 21
246.8080501556399
 31
0.0
  0
LINE
  5
395
330
1F
100
AcDbEntity
  8
APPARENT
100
AcDbLine
 10
285.1625339984893
 20
215.2995281219485
 30
0.0
 11
285.3822605609893
 21
215.2995281219485
 31
0.0
  0
LINE
  5
396
330
1F
100
AcDbEntity
  8
APPARENT
100
AcDbLine
 10
246.7140917778015
 20
247.4367122650149
 30
0.0
 11
246.3002734184265
 21
246.8080501556399
 31
0.0
  0
LINE
  5
397
330
1F
100
AcDbEntity
  8
APPARENT
100
AcDbLine
 10
303.1154148578643
 20
215.2995281219485
 30
0.0
 11
303.1154148578643
 21
215.1103191375735
 31
0.0
  0
SPLINE
  5
398
330
1F
100
AcDbEntity
  8
APPARENT
100
AcDbSpline
210
0.0
220
0.0
230
1.0
 70
     8
 71
     2
 72
     6
 73
     3
 74
     0
 42
0.000000001
 43
0.000001
 12
1.0
 22
0.0
 32
0.0
 13
1.0
 23
0.0
 33
0.0
 40
0.0
 40
0.0
 40
0.0
 40
1.0
 40
1.0
 40
1.0
 10
275.0118230844362
 20
247.5671190833051
 30
0.0
 10
275.0118230844362
 20
247.7660936926801
 30
0.0
 10
274.9355291391237
 20
247.8350634192426
 30
0.0
  0
LINE
  5
399
330
1F
100
AcDbEntity
  8
APPARENT
100
AcDbLine
 10
250.5263476371765
 20
248.8295345306399
 30
0.0
 11
250.5287890434265
 21
248.7697200775149
 31
0.0
  0
CIRCLE
  5
39A
330
1F
100
AcDbEntity
  8
APPARENT
100
AcDbCircle
 10
320.8099536516058
 20
218.7909442138673
 30
0.0
 40
0.6000000000000227
  0
LINE
  5
39B
330
1F
100
AcDbEntity
  8
APPARENT
100
AcDbLine
 10
288.1038641000612
 20
246.5148729895551
 30
0.0
 11
288.1221746469362
 21
246.6821093176801
 31
0.0
  0
SPLINE
  5
39C
330
1F
100
AcDbEntity
  8
APPARENT
100
AcDbSpline
210
0.0
220
0.0
230
1.0
 70
     8
 71
     2
 72
     6
 73
     3
 74
     0
 42
0.000000001
 43
0.000001
 12
1.0
 22
0.0
 32
0.0
 13
1.0
 23
0.0
 33
0.0
 40
0.0
 40
0.0
 40
0.0
 40
1.0
 40
1.0
 40
1.0
 10
267.9786961078643
 20
213.9311199188235
 30
0.0
 10
268.5072605609893
 20
213.9311199188235
 30
0.0
 10
268.5969822406768
 20
214.0483074188235
 30
0.0
  0
LINE
  5
39D
330
1F
100
AcDbEntity
  8
APPARENT
100
AcDbLine
 10
311.3086395263671
 20
213.7431316375735
 30
0.0
 11
303.5093073844909
 21
213.7431316375735
 31
0.0
  0
LINE
  5
39E
330
1F
100
AcDbEntity
  8
APPARENT
100
AcDbLine
 10
252.4721484184265
 20
248.8527278900149
 30
0.0
 11
252.4648241996765
 21
248.8527278900149
 31
0.0
  0
SPLINE
  5
39F
330
1F
100
AcDbEntity
  8
APPARENT
100
AcDbSpline
210
0.0
220
0.0
230
1.0
 70
     8
 71
     2
 72
     6
 73
     3
 74
     0
 42
0.000000001
 43
0.000001
 12
1.0
 22
0.0
 32
0.0
 13
1.0
 23
0.0
 33
0.0
 40
0.0
 40
0.0
 40
0.0
 40
1.0
 40
1.0
 40
1.0
 10
286.4162420297487
 20
248.4716600989301
 30
0.0
 10
286.3289617563112
 20
248.5485643958051
 30
0.0
 10
286.0225652719362
 20
248.5485643958051
 30
0.0
  0
SPLINE
  5
3A0
330
1F
100
AcDbEntity
  8
APPARENT
100
AcDbSpline
210
0.0
220
0.0
230
1.0
 70
     8
 71
     2
 72
     6
 73
     3
 74
     0
 42
0.000000001
 43
0.000001
 12
1.0
 22
0.0
 32
0.0
 13
1.0
 23
0.0
 33
0.0
 40
0.0
 40
0.0
 40
0.0
 40
1.0
 40
1.0
 40
1.0
 10
291.1519598031862
 20
247.3376268958051
 30
0.0
 10
291.1519598031862
 20
247.6708788489301
 30
0.0
 10
291.0585760141237
 20
247.7874559973676
 30
0.0
  0
LINE
  5
3A1
330
1F
100
AcDbEntity
  8
APPARENT
100
AcDbLine
 10
267.8523992563112
 20
246.5148729895551
 30
0.0
 11
267.5252508188112
 21
246.5148729895551
 31
0.0
  0
SPLINE
  5
3A2
330
1F
100
AcDbEntity
  8
APPARENT
100
AcDbSpline
210
0.0
220
0.0
230
1.0
 70
     8
 71
     2
 72
     6
 73
     3
 74
     0
 42
0.000000001
 43
0.000001
 12
1.0
 22
0.0
 32
0.0
 13
1.0
 23
0.0
 33
0.0
 40
0.0
 40
0.0
 40
0.0
 40
1.0
 40
1.0
 40
1.0
 10
283.0788396859987
 20
246.7571825598676
 30
0.0
 10
282.9280828500612
 20
246.5148729895551
 30
0.0
 10
282.4764226938112
 20
246.5148729895551
 30
0.0
  0
LINE
  5
3A3
330
1F
100
AcDbEntity
  8
APPARENT
100
AcDbLine
 10
300.0844089984893
 20
214.8551921844485
 30
0.0
 11
300.0844089984893
 21
214.9992351531985
 31
0.0
  0
SPLINE
  5
3A4
330
1F
100
AcDbEntity
  8
APPARENT
100
AcDbSpline
210
0.0
220
0.0
230
1.0
 70
     8
 71
     2
 72
     6
 73
     3
 74
     0
 42
0.000000001
 43
0.000001
 12
1.0
 22
0.0
 32
0.0
 13
1.0
 23
0.0
 33
0.0
 40
0.0
 40
0.0
 40
0.0
 40
1.0
 40
1.0
 40
1.0
 10
286.2416355609893
 20
214.7953777313235
 30
0.0
 10
286.2416355609893
 20
214.9943523406985
 30
0.0
 10
286.1653416156768
 20
215.063322067261
 30
0.0
  0
SPLINE
  5
3A5
330
1F
100
AcDbEntity
  8
APPARENT
100
AcDbSpline
210
0.0
220
0.0
230
1.0
 70
     8
 71
     2
 72
     6
 73
     3
 74
     0
 42
0.000000001
 43
0.000001
 12
1.0
 22
0.0
 32
0.0
 13
1.0
 23
0.0
 33
0.0
 40
0.0
 40
0.0
 40
0.0
 40
1.0
 40
1.0
 40
1.0
 10
267.9799168109893
 20
215.9880046844485
 30
0.0
 10
268.6097996234893
 20
215.9880046844485
 30
0.0
 10
268.7678806781768
 20
215.804288864136
 30
0.0
  0
SPLINE
  5
3A6
330
1F
100
AcDbEntity
  8
APPARENT
100
AcDbSpline
210
0.0
220
0.0
230
1.0
 70
     8
 71
     2
 72
     6
 73
     3
 74
     0
 42
0.000000001
 43
0.000001
 12
1.0
 22
0.0
 32
0.0
 13
1.0
 23
0.0
 33
0.0
 40
0.0
 40
0.0
 40
0.0
 40
1.0
 40
1.0
 40
1.0
 10
268.7745945453643
 20
213.9054851531985
 30
0.0
 10
268.6232273578643
 20
213.7199382781985
 30
0.0
 10
267.9799168109893
 20
213.7199382781985
 30
0.0
  0
SPLINE
  5
3A7
330
1F
100
AcDbEntity
  8
APPARENT
100
AcDbSpline
210
0.0
220
0.0
230
1.0
 70
     8
 71
     2
 72
     6
 73
     3
 74
     0
 42
0.000000001
 43
0.000001
 12
1.0
 22
0.0
 32
0.0
 13
1.0
 23
0.0
 33
0.0
 40
0.0
 40
0.0
 40
0.0
 40
1.0
 40
1.0
 40
1.0
 10
256.1428027153015
 20
247.0192317962649
 30
0.0
 10
256.5419726371765
 20
247.0192317962649
 30
0.0
 10
256.6579394340515
 20
247.1785335540774
 30
0.0
  0
SPLINE
  5
3A8
330
1F
100
AcDbEntity
  8
APPARENT
100
AcDbSpline
210
0.0
220
0.0
230
1.0
 70
     8
 71
     2
 72
     6
 73
     3
 74
     0
 42
0.000000001
 43
0.000001
 12
1.0
 22
0.0
 32
0.0
 13
1.0
 23
0.0
 33
0.0
 40
0.0
 40
0.0
 40
0.0
 40
1.0
 40
1.0
 40
1.0
 10
286.6268133188112
 20
246.6045946692426
 30
0.0
 10
286.4717840219362
 20
246.4916796301801
 30
0.0
 10
285.8492254281862
 20
246.4916796301801
 30
0.0
  0
LINE
  5
3A9
330
1F
100
AcDbEntity
  8
APPARENT
100
AcDbLine
 10
255.4189257621765
 20
247.0192317962649
 30
0.0
 11
256.1428027153015
 21
247.0192317962649
 31
0.0
  0
SPLINE
  5
3AA
330
1F
100
AcDbEntity
  8
APPARENT
100
AcDbSpline
210
0.0
220
0.0
230
1.0
 70
     8
 71
     2
 72
     6
 73
     3
 74
     0
 42
0.000000001
 43
0.000001
 12
1.0
 22
0.0
 32
0.0
 13
1.0
 23
0.0
 33
0.0
 40
0.0
 40
0.0
 40
0.0
 40
1.0
 40
1.0
 40
1.0
 10
272.4965642953737
 20
247.2295946692426
 30
0.0
 10
272.4178289438112
 20
247.1740526770551
 30
0.0
 10
272.4178289438112
 20
246.9921679114301
 30
0.0
  0
SPLINE
  5
3AB
330
1F
100
AcDbEntity
  8
APPARENT
100
AcDbSpline
210
0.0
220
0.0
230
1.0
 70
     8
 71
     2
 72
     6
 73
     3
 74
     0
 42
0.000000001
 43
0.000001
 12
1.0
 22
0.0
 32
0.0
 13
1.0
 23
0.0
 33
0.0
 40
0.0
 40
0.0
 40
0.0
 40
1.0
 40
1.0
 40
1.0
 10
313.1288425922393
 20
215.3215007781985
 30
0.0
 10
313.4633152484893
 20
215.3215007781985
 30
0.0
 10
313.5811131000518
 20
215.2043132781985
 30
0.0
  0
SPLINE
  5
3AC
330
1F
100
AcDbEntity
  8
APPARENT
100
AcDbSpline
210
0.0
220
0.0
230
1.0
 70
     8
 71
     2
 72
     6
 73
     3
 74
     0
 42
0.000000001
 43
0.000001
 12
1.0
 22
0.0
 32
0.0
 13
1.0
 23
0.0
 33
0.0
 40
0.0
 40
0.0
 40
0.0
 40
1.0
 40
1.0
 40
1.0
 10
300.0831882953643
 20
215.2104167938235
 30
0.0
 10
300.0831882953643
 20
215.5778484344485
 30
0.0
 10
299.9592869281768
 20
215.677335739136
 30
0.0
  0
LINE
  5
3AD
330
1F
100
AcDbEntity
  8
APPARENT
100
AcDbLine
 10
279.5980047250612
 20
246.9848436926801
 30
0.0
 11
279.4271062875612
 21
246.5148729895551
 31
0.0
  0
LINE
  5
3AE
330
1F
100
AcDbEntity
  8
APPARENT
100
AcDbLine
 10
249.0590624809265
 20
247.4184017181399
 30
0.0
 11
249.0554003715515
 21
247.5502376556399
 31
0.0
  0
LINE
  5
3AF
330
1F
100
AcDbEntity
  8
APPARENT
100
AcDbLine
 10
278.9351629281862
 20
248.7365526770551
 30
0.0
 11
278.9351629281862
 21
246.5148729895551
 31
0.0
  0
LINE
  5
3B0
330
1F
100
AcDbEntity
  8
APPARENT
100
AcDbLine
 10
276.7501043344362
 20
248.5363573645551
 30
0.0
 11
276.7427801156862
 21
248.5363573645551
 31
0.0
  0
LINE
  5
3B1
330
1F
100
AcDbEntity
  8
APPARENT
100
AcDbLine
 10
277.7107976938112
 20
246.8359179114301
 30
0.0
 11
277.7169012094362
 21
246.8359179114301
 31
0.0
  0
LINE
  5
3B2
330
1F
100
AcDbEntity
  8
APPARENT
100
AcDbLine
 10
268.7911199594362
 20
246.5148729895551
 30
0.0
 11
268.5628484750612
 21
246.5148729895551
 31
0.0
  0
LINE
  5
3B3
330
1F
100
AcDbEntity
  8
APPARENT
100
AcDbLine
 10
281.6353582406862
 20
246.7260546301801
 30
0.0
 11
282.3592351938112
 21
246.7260546301801
 31
0.0
  0
SPLINE
  5
3B4
330
1F
100
AcDbEntity
  8
APPARENT
100
AcDbSpline
210
0.0
220
0.0
230
1.0
 70
     8
 71
     2
 72
     6
 73
     3
 74
     0
 42
0.000000001
 43
0.000001
 12
1.0
 22
0.0
 32
0.0
 13
1.0
 23
0.0
 33
0.0
 40
0.0
 40
0.0
 40
0.0
 40
1.0
 40
1.0
 40
1.0
 10
271.7940496469362
 20
247.5951952551801
 30
0.0
 10
271.7989324594362
 20
247.6574511145551
 30
0.0
 10
271.7989324594362
 20
247.6782030676801
 30
0.0
  0
LINE
  5
3B5
330
1F
100
AcDbEntity
  8
APPARENT
100
AcDbLine
 10
280.1558660531862
 20
248.5314745520551
 30
0.0
 11
279.6688055063112
 21
247.1740526770551
 31
0.0
  0
LINE
  5
3B6
330
1F
100
AcDbEntity
  8
APPARENT
100
AcDbLine
 10
285.3761570453643
 20
215.0883464813235
 30
0.0
 11
285.3822605609893
 21
215.0834636688235
 31
0.0
  0
LINE
  5
3B7
330
1F
100
AcDbEntity
  8
APPARENT
100
AcDbLine
 10
274.1524480844362
 20
248.0712694739301
 30
0.0
 11
274.1463445688112
 21
247.8600878333051
 31
0.0
  0
LINE
  5
3B8
330
1F
100
AcDbEntity
  8
APPARENT
100
AcDbLine
 10
273.9327215219362
 20
246.5148729895551
 30
0.0
 11
273.9327215219362
 21
248.0712694739301
 31
0.0
  0
LINE
  5
3B9
330
1F
100
AcDbEntity
  8
APPARENT
100
AcDbLine
 10
253.9394335746765
 20
248.8246517181399
 30
0.0
 11
253.4523730278015
 21
247.4672298431399
 31
0.0
  0
SPLINE
  5
3BA
330
1F
100
AcDbEntity
  8
APPARENT
100
AcDbSpline
210
0.0
220
0.0
230
1.0
 70
     8
 71
     2
 72
     6
 73
     3
 74
     0
 42
0.000000001
 43
0.000001
 12
1.0
 22
0.0
 32
0.0
 13
1.0
 23
0.0
 33
0.0
 40
0.0
 40
0.0
 40
0.0
 40
1.0
 40
1.0
 40
1.0
 10
287.6692937875612
 20
248.0932421301801
 30
0.0
 10
288.0586980844362
 20
248.0932421301801
 30
0.0
 10
288.1954168344362
 20
247.9784960364301
 30
0.0
  0
LINE
  5
3BB
330
1F
100
AcDbEntity
  8
APPARENT
100
AcDbLine
 10
255.1686816215515
 20
249.0297298431399
 30
0.0
 11
256.1965136528015
 21
249.0297298431399
 31
0.0
  0
SPLINE
  5
3BC
330
1F
100
AcDbEntity
  8
APPARENT
100
AcDbSpline
210
0.0
220
0.0
230
1.0
 70
     8
 71
     2
 72
     6
 73
     3
 74
     0
 42
0.000000001
 43
0.000001
 12
1.0
 22
0.0
 32
0.0
 13
1.0
 23
0.0
 33
0.0
 40
0.0
 40
0.0
 40
0.0
 40
1.0
 40
1.0
 40
1.0
 10
285.2169012094362
 20
248.6230272864301
 30
0.0
 10
285.4061101938112
 20
248.7597460364301
 30
0.0
 10
286.0323308969362
 20
248.7597460364301
 30
0.0
  0
LINE
  5
3BD
330
1F
100
AcDbEntity
  8
APPARENT
100
AcDbLine
 10
259.6436038995607
 20
246.1597460364301
 30
0.0
 11
243.1436038995607
 21
246.1597460364301
 31
0.0
  0
LINE
  5
3BE
330
1F
100
AcDbEntity
  8
APPARENT
100
AcDbLine
 10
250.5532031059265
 20
248.7794857025149
 30
0.0
 11
250.5336718559265
 21
248.8295345306399
 31
0.0
  0
LINE
  5
3BF
330
1F
100
AcDbEntity
  8
APPARENT
100
AcDbLine
 10
300.5983250141143
 20
215.2995281219485
 30
0.0
 11
300.8265964984893
 21
215.2995281219485
 31
0.0
  0
SPLINE
  5
3C0
330
1F
100
AcDbEntity
  8
APPARENT
100
AcDbSpline
210
0.0
220
0.0
230
1.0
 70
     8
 71
     2
 72
     6
 73
     3
 74
     0
 42
0.000000001
 43
0.000001
 12
1.0
 22
0.0
 32
0.0
 13
1.0
 23
0.0
 33
0.0
 40
0.0
 40
0.0
 40
0.0
 40
1.0
 40
1.0
 40
1.0
 10
287.6583074594362
 20
247.2851366614301
 30
0.0
 10
287.3958562875612
 20
247.2851366614301
 30
0.0
 10
287.3171209359987
 20
247.2295946692426
 30
0.0
  0
LINE
  5
3C1
330
1F
100
AcDbEntity
  8
APPARENT
100
AcDbLine
 10
289.8604558969362
 20
247.5561327551801
 30
0.0
 11
289.6358465219362
 21
247.5561327551801
 31
0.0
  0
LINE
  5
3C2
330
1F
100
AcDbEntity
  8
APPARENT
100
AcDbLine
 10
298.4303562641143
 20
215.0114421844485
 30
0.0
 11
298.4327976703643
 21
215.2214031219485
 31
0.0
  0
LINE
  5
3C3
330
1F
100
AcDbEntity
  8
APPARENT
100
AcDbLine
 10
257.3464159965515
 20
249.0297298431399
 30
0.0
 11
257.5966601371765
 21
249.0297298431399
 31
0.0
  0
LINE
  5
3C4
330
1F
100
AcDbEntity
  8
APPARENT
100
AcDbLine
 10
278.9351629281862
 20
246.5148729895551
 30
0.0
 11
278.6849187875612
 21
246.5148729895551
 31
0.0
  0
LINE
  5
3C5
330
1F
100
AcDbEntity
  8
APPARENT
100
AcDbLine
 10
244.2934374809265
 20
246.8080501556399
 30
0.0
 11
244.0273241996765
 21
246.8080501556399
 31
0.0
  0
SPLINE
  5
3C6
330
1F
100
AcDbEntity
  8
APPARENT
100
AcDbSpline
210
0.0
220
0.0
230
1.0
 70
     8
 71
     2
 72
     6
 73
     3
 74
     0
 42
0.000000001
 43
0.000001
 12
1.0
 22
0.0
 32
0.0
 13
1.0
 23
0.0
 33
0.0
 40
0.0
 40
0.0
 40
0.0
 40
1.0
 40
1.0
 40
1.0
 10
288.1038641000612
 20
247.4914354895551
 30
0.0
 10
288.1038641000612
 20
247.7587694739301
 30
0.0
 10
288.0306219125612
 20
247.8375048254926
 30
0.0
  0
SPLINE
  5
3C7
330
1F
100
AcDbEntity
  8
APPARENT
100
AcDbSpline
210
0.0
220
0.0
230
1.0
 70
     8
 71
     2
 72
     6
 73
     3
 74
     0
 42
0.000000001
 43
0.000001
 12
1.0
 22
0.0
 32
0.0
 13
1.0
 23
0.0
 33
0.0
 40
0.0
 40
0.0
 40
0.0
 40
1.0
 40
1.0
 40
1.0
 10
269.7462742328643
 20
213.7199382781985
 30
0.0
 10
269.2006199359893
 20
213.7199382781985
 30
0.0
 10
269.2006199359893
 20
214.2643718719485
 30
0.0
  0
SPLINE
  5
3C8
330
1F
100
AcDbEntity
  8
APPARENT
100
AcDbSpline
210
0.0
220
0.0
230
1.0
 70
     8
 71
     2
 72
     6
 73
     3
 74
     0
 42
0.000000001
 43
0.000001
 12
1.0
 22
0.0
 32
0.0
 13
1.0
 23
0.0
 33
0.0
 40
0.0
 40
0.0
 40
0.0
 40
1.0
 40
1.0
 40
1.0
 10
271.5377019906862
 20
247.9174608801801
 30
0.0
 10
271.1568426156862
 20
247.9174608801801
 30
0.0
 10
271.1568426156862
 20
247.4474901770551
 30
0.0
  0
LINE
  5
3C9
330
1F
100
AcDbEntity
  8
APPARENT
100
AcDbLine
 10
279.6688055063112
 20
247.1740526770551
 30
0.0
 11
280.6490301156862
 21
247.1740526770551
 31
0.0
  0
LINE
  5
3CA
330
1F
100
AcDbEntity
  8
APPARENT
100
AcDbLine
 10
271.1568426156862
 20
247.4474901770551
 30
0.0
 11
271.1568426156862
 21
246.5148729895551
 31
0.0
  0
LINE
  5
3CB
330
1F
100
AcDbEntity
  8
APPARENT
100
AcDbLine
 10
283.5628484750612
 20
248.7365526770551
 30
0.0
 11
283.8130926156862
 21
248.7365526770551
 31
0.0
  0
LINE
  5
3CC
330
1F
100
AcDbEntity
  8
APPARENT
100
AcDbLine
 10
268.5628484750612
 20
246.5148729895551
 30
0.0
 11
268.5628484750612
 21
248.0712694739301
 31
0.0
  0
SPLINE
  5
3CD
330
1F
100
AcDbEntity
  8
APPARENT
100
AcDbSpline
210
0.0
220
0.0
230
1.0
 70
     8
 71
     2
 72
     6
 73
     3
 74
     0
 42
0.000000001
 43
0.000001
 12
1.0
 22
0.0
 32
0.0
 13
1.0
 23
0.0
 33
0.0
 40
0.0
 40
0.0
 40
0.0
 40
1.0
 40
1.0
 40
1.0
 10
313.0995457172393
 20
215.1322917938235
 30
0.0
 10
312.6198093891143
 20
215.1322917938235
 30
0.0
 10
312.6198093891143
 20
214.6794109344485
 30
0.0
  0
LINE
  5
3CE
330
1F
100
AcDbEntity
  8
APPARENT
100
AcDbLine
 10
276.4961980844362
 20
246.5148729895551
 30
0.0
 11
276.4961980844362
 21
248.7365526770551
 31
0.0
  0
SPLINE
  5
3CF
330
1F
100
AcDbEntity
  8
APPARENT
100
AcDbSpline
210
0.0
220
0.0
230
1.0
 70
     8
 71
     2
 72
     6
 73
     3
 74
     0
 42
0.000000001
 43
0.000001
 12
1.0
 22
0.0
 32
0.0
 13
1.0
 23
0.0
 33
0.0
 40
0.0
 40
0.0
 40
0.0
 40
1.0
 40
1.0
 40
1.0
 10
272.8133367563112
 20
246.6808886145551
 30
0.0
 10
273.2942937875612
 20
246.6808886145551
 30
0.0
 10
273.2942937875612
 20
246.9738573645551
 30
0.0
  0
SPLINE
  5
3D0
330
1F
100
AcDbEntity
  8
APPARENT
100
AcDbSpline
210
0.0
220
0.0
230
1.0
 70
     8
 71
     2
 72
     6
 73
     3
 74
     0
 42
0.000000001
 43
0.000001
 12
1.0
 22
0.0
 32
0.0
 13
1.0
 23
0.0
 33
0.0
 40
0.0
 40
0.0
 40
0.0
 40
1.0
 40
1.0
 40
1.0
 10
273.2100652719362
 20
247.8375048254926
 30
0.0
 10
273.1368230844362
 20
247.9162401770551
 30
0.0
 10
272.8890203500612
 20
247.9162401770551
 30
0.0
  0
SPLINE
  5
3D1
330
1F
100
AcDbEntity
  8
APPARENT
100
AcDbSpline
210
0.0
220
0.0
230
1.0
 70
     8
 71
     2
 72
     6
 73
     3
 74
     0
 42
0.000000001
 43
0.000001
 12
1.0
 22
0.0
 32
0.0
 13
1.0
 23
0.0
 33
0.0
 40
0.0
 40
0.0
 40
0.0
 40
1.0
 40
1.0
 40
1.0
 10
271.1195652484893
 20
214.1581707000735
 30
0.0
 10
271.1195652484893
 20
213.9091472625735
 30
0.0
 10
271.3405125141143
 20
213.9091472625735
 30
0.0
  0
LINE
  5
3D2
330
1F
100
AcDbEntity
  8
APPARENT
100
AcDbLine
 10
267.0326511859893
 20
215.0114421844485
 30
0.0
 11
267.0350925922393
 21
215.2214031219485
 31
0.0
  0
LINE
  5
3D3
330
1F
100
AcDbEntity
  8
APPARENT
100
AcDbLine
 10
246.3002734184265
 20
246.8080501556399
 30
0.0
 11
246.0292773246765
 21
246.8080501556399
 31
0.0
  0
LINE
  5
3D4
330
1F
100
AcDbEntity
  8
APPARENT
100
AcDbLine
 10
289.0047430063112
 20
246.5148729895551
 30
0.0
 11
288.7764715219362
 21
246.5148729895551
 31
0.0
  0
LINE
  5
3D5
330
1F
100
AcDbEntity
  8
APPARENT
100
AcDbLine
 10
272.4690984750612
 20
247.6794237708051
 30
0.0
 11
272.4715398813112
 21
247.6342577551801
 31
0.0
  0
LINE
  5
3D6
330
1F
100
AcDbEntity
  8
APPARENT
100
AcDbLine
 10
268.7911199594362
 20
248.4814257239301
 30
0.0
 11
268.5628484750612
 21
248.4814257239301
 31
0.0
  0
LINE
  5
3D7
330
1F
100
AcDbEntity
  8
APPARENT
100
AcDbLine
 10
252.4697070121765
 20
248.7855892181399
 30
0.0
 11
252.4721484184265
 21
248.8527278900149
 31
0.0
  0
LINE
  5
3D8
330
1F
100
AcDbEntity
  8
APPARENT
100
AcDbLine
 10
252.3842577934265
 20
248.6464290618899
 30
0.0
 11
251.6262011528015
 21
246.8080501556399
 31
0.0
  0
LINE
  5
3D9
330
1F
100
AcDbEntity
  8
APPARENT
100
AcDbLine
 10
288.1221746469362
 20
246.6821093176801
 30
0.0
 11
288.1172918344362
 21
246.6845507239301
 31
0.0
  0
LINE
  5
3DA
330
1F
100
AcDbEntity
  8
APPARENT
100
AcDbLine
 10
250.5727343559265
 20
248.7269954681399
 30
0.0
 11
250.5532031059265
 21
248.7794857025149
 31
0.0
  0
SPLINE
  5
3DB
330
1F
100
AcDbEntity
  8
APPARENT
100
AcDbSpline
210
0.0
220
0.0
230
1.0
 70
     8
 71
     2
 72
     6
 73
     3
 74
     0
 42
0.000000001
 43
0.000001
 12
1.0
 22
0.0
 32
0.0
 13
1.0
 23
0.0
 33
0.0
 40
0.0
 40
0.0
 40
0.0
 40
1.0
 40
1.0
 40
1.0
 10
290.6966375375612
 20
247.9040331458051
 30
0.0
 10
290.4439519906862
 20
247.9040331458051
 30
0.0
 10
290.3609441781862
 20
247.7874559973676
 30
0.0
  0
LINE
  5
3DC
330
1F
100
AcDbEntity
  8
APPARENT
100
AcDbLine
 10
282.4764226938112
 20
246.5148729895551
 30
0.0
 11
281.3851141000612
 21
246.5148729895551
 31
0.0
  0
SPLINE
  5
3DD
330
1F
100
AcDbEntity
  8
APPARENT
100
AcDbSpline
210
0.0
220
0.0
230
1.0
 70
     8
 71
     2
 72
     6
 73
     3
 74
     0
 42
0.000000001
 43
0.000001
 12
1.0
 22
0.0
 32
0.0
 13
1.0
 23
0.0
 33
0.0
 40
0.0
 40
0.0
 40
0.0
 40
1.0
 40
1.0
 40
1.0
 10
274.1524480844362
 20
247.8552050208051
 30
0.0
 10
274.2574285531862
 20
248.0932421301801
 30
0.0
 10
274.6700262094362
 20
248.0932421301801
 30
0.0
  0
SPLINE
  5
3DE
330
1F
100
AcDbEntity
  8
APPARENT
100
AcDbSpline
210
0.0
220
0.0
230
1.0
 70
     8
 71
     2
 72
     6
 73
     3
 74
     0
 42
0.000000001
 43
0.000001
 12
1.0
 22
0.0
 32
0.0
 13
1.0
 23
0.0
 33
0.0
 40
0.0
 40
0.0
 40
0.0
 40
1.0
 40
1.0
 40
1.0
 10
287.3171209359987
 20
247.2295946692426
 30
0.0
 10
287.2383855844362
 20
247.1740526770551
 30
0.0
 10
287.2383855844362
 20
246.9921679114301
 30
0.0
  0
SPLINE
  5
3DF
330
1F
100
AcDbEntity
  8
APPARENT
100
AcDbSpline
210
0.0
220
0.0
230
1.0
 70
     8
 71
     2
 72
     6
 73
     3
 74
     0
 42
0.000000001
 43
0.000001
 12
1.0
 22
0.0
 32
0.0
 13
1.0
 23
0.0
 33
0.0
 40
0.0
 40
0.0
 40
0.0
 40
1.0
 40
1.0
 40
1.0
 10
256.1965136528015
 20
249.0297298431399
 30
0.0
 10
256.6738085746765
 20
249.0297298431399
 30
0.0
 10
256.8434863090515
 20
248.8197689056399
 30
0.0
  0
LINE
  5
3E0
330
1F
100
AcDbEntity
  8
APPARENT
100
AcDbLine
 10
266.5706609750612
 20
247.1789354895551
 30
0.0
 11
266.5706609750612
 21
248.0712694739301
 31
0.0
  0
LINE
  5
3E1
330
1F
100
AcDbEntity
  8
APPARENT
100
AcDbLine
 10
289.6358465219362
 20
247.5561327551801
 30
0.0
 11
289.6419500375612
 21
247.5951952551801
 31
0.0
  0
SPLINE
  5
3E2
330
1F
100
AcDbEntity
  8
APPARENT
100
AcDbSpline
210
0.0
220
0.0
230
1.0
 70
     8
 71
     2
 72
     6
 73
     3
 74
     0
 42
0.000000001
 43
0.000001
 12
1.0
 22
0.0
 32
0.0
 13
1.0
 23
0.0
 33
0.0
 40
0.0
 40
0.0
 40
0.0
 40
1.0
 40
1.0
 40
1.0
 10
257.0131640434265
 20
248.0153255462649
 30
0.0
 10
257.0131640434265
 20
247.2926692962649
 30
0.0
 10
256.862407207489
 20
247.0503597259524
 30
0.0
  0
SPLINE
  5
3E3
330
1F
100
AcDbEntity
  8
APPARENT
100
AcDbSpline
210
0.0
220
0.0
230
1.0
 70
     8
 71
     2
 72
     6
 73
     3
 74
     0
 42
0.000000001
 43
0.000001
 12
1.0
 22
0.0
 32
0.0
 13
1.0
 23
0.0
 33
0.0
 40
0.0
 40
0.0
 40
0.0
 40
1.0
 40
1.0
 40
1.0
 10
249.0261034965515
 20
248.4193782806399
 30
0.0
 10
249.0261034965515
 20
248.6879329681399
 30
0.0
 10
248.938823223114
 20
248.7648372650149
 30
0.0
  0
LINE
  5
3E4
330
1F
100
AcDbEntity
  8
APPARENT
100
AcDbLine
 10
274.1463445688112
 20
247.8600878333051
 30
0.0
 11
274.1524480844362
 21
247.8552050208051
 31
0.0
  0
LINE
  5
3E5
330
1F
100
AcDbEntity
  8
APPARENT
100
AcDbLine
 10
245.0221972465515
 20
248.8246517181399
 30
0.0
 11
244.5351366996765
 21
247.4672298431399
 31
0.0
  0
SPLINE
  5
3E6
330
1F
100
AcDbEntity
  8
APPARENT
100
AcDbSpline
210
0.0
220
0.0
230
1.0
 70
     8
 71
     2
 72
     6
 73
     3
 74
     0
 42
0.000000001
 43
0.000001
 12
1.0
 22
0.0
 32
0.0
 13
1.0
 23
0.0
 33
0.0
 40
0.0
 40
0.0
 40
0.0
 40
1.0
 40
1.0
 40
1.0
 10
298.4327976703643
 20
215.2214031219485
 30
0.0
 10
298.4327976703643
 20
215.6645183563235
 30
0.0
 10
298.6323826313018
 20
215.826261520386
 30
0.0
  0
SPLINE
  5
3E7
330
1F
100
AcDbEntity
  8
APPARENT
100
AcDbSpline
210
0.0
220
0.0
230
1.0
 70
     8
 71
     2
 72
     6
 73
     3
 74
     0
 42
0.000000001
 43
0.000001
 12
1.0
 22
0.0
 32
0.0
 13
1.0
 23
0.0
 33
0.0
 40
0.0
 40
0.0
 40
0.0
 40
1.0
 40
1.0
 40
1.0
 10
273.2833074594362
 20
247.4914354895551
 30
0.0
 10
273.2833074594362
 20
247.7587694739301
 30
0.0
 10
273.2100652719362
 20
247.8375048254926
 30
0.0
  0
LINE
  5
3E8
330
1F
100
AcDbEntity
  8
APPARENT
100
AcDbLine
 10
277.5923894906862
 20
246.5148729895551
 30
0.0
 11
276.8331121469362
 21
248.3312792395551
 31
0.0
  0
LINE
  5
3E9
330
1F
100
AcDbEntity
  8
APPARENT
100
AcDbLine
 10
244.8415331840515
 20
249.0297298431399
 30
0.0
 11
245.1930956840515
 21
249.0297298431399
 31
0.0
  0
SPLINE
  5
3EA
330
1F
100
AcDbEntity
  8
APPARENT
100
AcDbSpline
210
0.0
220
0.0
230
1.0
 70
     8
 71
     2
 72
     6
 73
     3
 74
     0
 42
0.000000001
 43
0.000001
 12
1.0
 22
0.0
 32
0.0
 13
1.0
 23
0.0
 33
0.0
 40
0.0
 40
0.0
 40
0.0
 40
1.0
 40
1.0
 40
1.0
 10
286.6048406625612
 20
248.6279100989301
 30
0.0
 10
286.7525457406862
 20
248.4960741614301
 30
0.0
 10
286.7525457406862
 20
248.1188768958051
 30
0.0
  0
SPLINE
  5
3EB
330
1F
100
AcDbEntity
  8
APPARENT
100
AcDbSpline
210
0.0
220
0.0
230
1.0
 70
     8
 71
     2
 72
     6
 73
     3
 74
     0
 42
0.000000001
 43
0.000001
 12
1.0
 22
0.0
 32
0.0
 13
1.0
 23
0.0
 33
0.0
 40
0.0
 40
0.0
 40
0.0
 40
1.0
 40
1.0
 40
1.0
 10
290.3603338266237
 20
246.8035692786176
 30
0.0
 10
290.4427312875612
 20
246.6808886145551
 30
0.0
 10
290.7015203500612
 20
246.6808886145551
 30
0.0
  0
LINE
  5
3EC
330
1F
100
AcDbEntity
  8
APPARENT
100
AcDbLine
 10
278.6006902719362
 20
248.3532518958051
 30
0.0
 11
277.8426336313112
 21
246.5148729895551
 31
0.0
  0
LINE
  5
3ED
330
1F
100
AcDbEntity
  8
APPARENT
100
AcDbLine
 10
272.3119835853576
 20
214.1431316375735
 30
0.0
 11
283.8956053853034
 21
214.1431316375735
 31
0.0
  0
LINE
  5
3EE
330
1F
100
AcDbEntity
  8
APPARENT
100
AcDbLine
 10
288.3321355844362
 20
247.5414843176801
 30
0.0
 11
288.3321355844362
 21
246.5148729895551
 31
0.0
  0
LINE
  5
3EF
330
1F
100
AcDbEntity
  8
APPARENT
100
AcDbLine
 10
263.3162664438112
 20
246.5148729895551
 30
0.0
 11
264.1304754281862
 21
248.7365526770551
 31
0.0
  0
LINE
  5
3F0
330
1F
100
AcDbEntity
  8
APPARENT
100
AcDbLine
 10
244.0273241996765
 20
246.8080501556399
 30
0.0
 11
244.8415331840515
 21
249.0297298431399
 31
0.0
  0
SPLINE
  5
3F1
330
1F
100
AcDbEntity
  8
APPARENT
100
AcDbSpline
210
0.0
220
0.0
230
1.0
 70
     8
 71
     2
 72
     6
 73
     3
 74
     0
 42
0.000000001
 43
0.000001
 12
1.0
 22
0.0
 32
0.0
 13
1.0
 23
0.0
 33
0.0
 40
0.0
 40
0.0
 40
0.0
 40
1.0
 40
1.0
 40
1.0
 10
277.7632879281862
 20
246.9506640051801
 30
0.0
 10
277.7974676156862
 20
247.0336718176801
 30
0.0
 10
277.8084539438112
 20
247.0666308020551
 30
0.0
  0
LINE
  5
3F2
330
1F
100
AcDbEntity
  8
APPARENT
100
AcDbLine
 10
267.6888250375612
 20
246.6918749426801
 30
0.0
 11
267.6949285531862
 21
246.6918749426801
 31
0.0
  0
LINE
  5
3F3
330
1F
100
AcDbEntity
  8
APPARENT
100
AcDbLine
 10
273.2784246469362
 20
247.3010058020551
 30
0.0
 11
273.2833074594362
 21
247.3022265051801
 31
0.0
  0
LINE
  5
3F4
330
1F
100
AcDbEntity
  8
APPARENT
100
AcDbLine
 10
286.9876487851142
 20
213.7431316375735
 30
0.0
 11
286.9876487851142
 21
214.1431316375735
 31
0.0
  0
LINE
  5
3F5
330
1F
100
AcDbEntity
  8
APPARENT
100
AcDbLine
 10
263.5823797250612
 20
246.5148729895551
 30
0.0
 11
263.3162664438112
 21
246.5148729895551
 31
0.0
  0
LINE
  5
3F6
330
1F
100
AcDbEntity
  8
APPARENT
100
AcDbLine
 10
284.7450535297393
 20
215.9648113250735
 30
0.0
 11
284.7450535297393
 21
213.7431316375735
 31
0.0
  0
SPLINE
  5
3F7
330
1F
100
AcDbEntity
  8
APPARENT
100
AcDbSpline
210
0.0
220
0.0
230
1.0
 70
     8
 71
     2
 72
     6
 73
     3
 74
     0
 42
0.000000001
 43
0.000001
 12
1.0
 22
0.0
 32
0.0
 13
1.0
 23
0.0
 33
0.0
 40
0.0
 40
0.0
 40
0.0
 40
1.0
 40
1.0
 40
1.0
 10
291.0671209359987
 20
246.8035692786176
 30
0.0
 10
291.1519598031862
 20
246.9262499426801
 30
0.0
 10
291.1519598031862
 20
247.3376268958051
 30
0.0
  0
LINE
  5
3F8
330
1F
100
AcDbEntity
  8
APPARENT
100
AcDbLine
 10
251.6884570121765
 20
247.5917415618899
 30
0.0
 11
252.2780566215515
 21
249.0297298431399
 31
0.0
  0
LINE
  5
3F9
330
1F
100
AcDbEntity
  8
APPARENT
100
AcDbLine
 10
273.2833074594362
 20
246.5148729895551
 30
0.0
 11
273.3016180063112
 21
246.6821093176801
 31
0.0
  0
SPLINE
  5
3FA
330
1F
100
AcDbEntity
  8
APPARENT
100
AcDbSpline
210
0.0
220
0.0
230
1.0
 70
     8
 71
     2
 72
     6
 73
     3
 74
     0
 42
0.000000001
 43
0.000001
 12
1.0
 22
0.0
 32
0.0
 13
1.0
 23
0.0
 33
0.0
 40
0.0
 40
0.0
 40
0.0
 40
1.0
 40
1.0
 40
1.0
 10
271.5853094125612
 20
248.1066698645551
 30
0.0
 10
272.0149969125612
 20
248.1066698645551
 30
0.0
 10
272.0149969125612
 20
247.6635546301801
 30
0.0
  0
LINE
  5
3FB
330
1F
100
AcDbEntity
  8
APPARENT
100
AcDbLine
 10
255.4189257621765
 20
248.8185482025149
 30
0.0
 11
255.4189257621765
 21
247.0192317962649
 31
0.0
  0
SPLINE
  5
3FC
330
1F
100
AcDbEntity
  8
APPARENT
100
AcDbSpline
210
0.0
220
0.0
230
1.0
 70
     8
 71
     2
 72
     6
 73
     3
 74
     0
 42
0.000000001
 43
0.000001
 12
1.0
 22
0.0
 32
0.0
 13
1.0
 23
0.0
 33
0.0
 40
0.0
 40
0.0
 40
0.0
 40
1.0
 40
1.0
 40
1.0
 10
273.2942937875612
 20
246.9738573645551
 30
0.0
 10
273.2942937875612
 20
247.1581835364301
 30
0.0
 10
273.2009099984987
 20
247.2216600989301
 30
0.0
  0
SPLINE
  5
3FD
330
1F
100
AcDbEntity
  8
APPARENT
100
AcDbSpline
210
0.0
220
0.0
230
1.0
 70
     8
 71
     2
 72
     6
 73
     3
 74
     0
 42
0.000000001
 43
0.000001
 12
1.0
 22
0.0
 32
0.0
 13
1.0
 23
0.0
 33
0.0
 40
0.0
 40
0.0
 40
0.0
 40
1.0
 40
1.0
 40
1.0
 10
300.1655857563018
 20
215.804288864136
 30
0.0
 10
300.3236668109893
 20
215.6205730438235
 30
0.0
 10
300.3236668109893
 20
214.8844890594485
 30
0.0
  0
LINE
  5
3FE
330
1F
100
AcDbEntity
  8
APPARENT
100
AcDbLine
 10
264.3111394906862
 20
248.5314745520551
 30
0.0
 11
263.8240789438112
 21
247.1740526770551
 31
0.0
  0
LINE
  5
3FF
330
1F
100
AcDbEntity
  8
APPARENT
100
AcDbLine
 10
247.3976855278015
 20
246.8080501556399
 30
0.0
 11
247.1254687309265
 21
246.8080501556399
 31
0.0
  0
LINE
  5
400
330
1F
100
AcDbEntity
  8
APPARENT
100
AcDbLine
 10
312.6112644672393
 20
215.2995281219485
 30
0.0
 11
312.6051609516143
 21
215.0883464813235
 31
0.0
  0
LINE
  5
401
330
1F
100
AcDbEntity
  8
APPARENT
100
AcDbLine
 10
301.6395847797393
 20
215.2995281219485
 30
0.0
 11
301.8678562641143
 21
215.2995281219485
 31
0.0
  0
LINE
  5
402
330
1F
100
AcDbEntity
  8
APPARENT
100
AcDbLine
 10
302.2889988422393
 20
215.2995281219485
 30
0.0
 11
302.2889988422393
 21
215.6742839813235
 31
0.0
  0
LINE
  5
403
330
1F
100
AcDbEntity
  8
APPARENT
100
AcDbLine
 10
247.0656542778015
 20
248.3644466400149
 30
0.0
 11
247.3378710746765
 21
248.3644466400149
 31
0.0
  0
SPLINE
  5
404
330
1F
100
AcDbEntity
  8
APPARENT
100
AcDbSpline
210
0.0
220
0.0
230
1.0
 70
     8
 71
     2
 72
     6
 73
     3
 74
     0
 42
0.000000001
 43
0.000001
 12
1.0
 22
0.0
 32
0.0
 13
1.0
 23
0.0
 33
0.0
 40
0.0
 40
0.0
 40
0.0
 40
1.0
 40
1.0
 40
1.0
 10
283.2295965219362
 20
247.7221483801801
 30
0.0
 10
283.2295965219362
 20
246.9994921301801
 30
0.0
 10
283.0788396859987
 20
246.7571825598676
 30
0.0
  0
ARC
  5
405
330
1F
100
AcDbEntity
  8
APPARENT
100
AcDbCircle
 10
259.6436038995607
 20
247.9097460364301
 30
0.0
 40
1.75
100
AcDbArc
 50
270.0
 51
90.0
  0
LINE
  5
406
330
1F
100
AcDbEntity
  8
APPARENT
100
AcDbLine
 10
250.6166796684265
 20
248.6244564056399
 30
0.0
 11
250.5727343559265
 21
248.7269954681399
 31
0.0
  0
ARC
  5
407
330
1F
100
AcDbEntity
  8
APPARENT
100
AcDbCircle
 10
319.0099536516059
 20
215.7431316375735
 30
0.0
 40
2.0
100
AcDbArc
 50
270.0
 51
0.0
  0
LINE
  5
408
330
1F
100
AcDbEntity
  8
APPARENT
100
AcDbLine
 10
302.5172703266143
 20
215.2995281219485
 30
0.0
 11
303.1154148578643
 21
215.2995281219485
 31
0.0
  0
LINE
  5
409
330
1F
100
AcDbEntity
  8
APPARENT
100
AcDbLine
 10
279.1609930063112
 20
246.5148729895551
 30
0.0
 11
279.9752019906862
 21
248.7365526770551
 31
0.0
  0
SPLINE
  5
40A
330
1F
100
AcDbEntity
  8
APPARENT
100
AcDbSpline
210
0.0
220
0.0
230
1.0
 70
     8
 71
     2
 72
     6
 73
     3
 74
     0
 42
0.000000001
 43
0.000001
 12
1.0
 22
0.0
 32
0.0
 13
1.0
 23
0.0
 33
0.0
 40
0.0
 40
0.0
 40
0.0
 40
1.0
 40
1.0
 40
1.0
 10
282.9903387094362
 20
247.5976366614301
 30
0.0
 10
282.9903387094362
 20
248.2031054114301
 30
0.0
 10
282.8902410531862
 20
248.3642382239301
 30
0.0
  0
LINE
  5
40B
330
1F
100
AcDbEntity
  8
APPARENT
100
AcDbLine
 10
283.8956053853034
 20
214.1431316375735
 30
0.0
 11
283.8956053853034
 21
213.7431316375735
 31
0.0
  0
LINE
  5
40C
330
1F
100
AcDbEntity
  8
APPARENT
100
AcDbLine
 10
314.216082572937
 20
213.7431316375735
 30
0.0
 11
314.216082572937
 21
214.1431316375735
 31
0.0
  0
SPLINE
  5
40D
330
1F
100
AcDbEntity
  8
APPARENT
100
AcDbSpline
210
0.0
220
0.0
230
1.0
 70
     8
 71
     2
 72
     6
 73
     3
 74
     0
 42
0.000000001
 43
0.000001
 12
1.0
 22
0.0
 32
0.0
 13
1.0
 23
0.0
 33
0.0
 40
0.0
 40
0.0
 40
0.0
 40
1.0
 40
1.0
 40
1.0
 10
285.3822605609893
 20
215.0834636688235
 30
0.0
 10
285.4872410297393
 20
215.3215007781985
 30
0.0
 10
285.8998386859893
 20
215.3215007781985
 30
0.0
  0
SPLINE
  5
40E
330
1F
100
AcDbEntity
  8
APPARENT
100
AcDbSpline
210
0.0
220
0.0
230
1.0
 70
     8
 71
     2
 72
     6
 73
     3
 74
     0
 42
0.000000001
 43
0.000001
 12
1.0
 22
0.0
 32
0.0
 13
1.0
 23
0.0
 33
0.0
 40
0.0
 40
0.0
 40
0.0
 40
1.0
 40
1.0
 40
1.0
 10
291.1580633188112
 20
246.7187304114301
 30
0.0
 10
291.0506414438112
 20
246.4916796301801
 30
0.0
 10
290.6587957406862
 20
246.4916796301801
 30
0.0
  0
LINE
  5
40F
330
1F
100
AcDbEntity
  8
APPARENT
100
AcDbLine
 10
270.8912937641143
 20
215.1103191375735
 30
0.0
 11
270.6764500141143
 21
215.1103191375735
 31
0.0
  0
LINE
  5
410
330
1F
100
AcDbEntity
  8
APPARENT
100
AcDbLine
 10
263.8240789438112
 20
247.1740526770551
 30
0.0
 11
264.8043035531862
 21
247.1740526770551
 31
0.0
  0
SPLINE
  5
411
330
1F
100
AcDbEntity
  8
APPARENT
100
AcDbSpline
210
0.0
220
0.0
230
1.0
 70
     8
 71
     2
 72
     6
 73
     3
 74
     0
 42
0.000000001
 43
0.000001
 12
1.0
 22
0.0
 32
0.0
 13
1.0
 23
0.0
 33
0.0
 40
0.0
 40
0.0
 40
0.0
 40
1.0
 40
1.0
 40
1.0
 10
289.3856023813112
 20
247.9174608801801
 30
0.0
 10
289.0047430063112
 20
247.9174608801801
 30
0.0
 10
289.0047430063112
 20
247.4474901770551
 30
0.0
  0
SPLINE
  5
412
330
1F
100
AcDbEntity
  8
APPARENT
100
AcDbSpline
210
0.0
220
0.0
230
1.0
 70
     8
 71
     2
 72
     6
 73
     3
 74
     0
 42
0.000000001
 43
0.000001
 12
1.0
 22
0.0
 32
0.0
 13
1.0
 23
0.0
 33
0.0
 40
0.0
 40
0.0
 40
0.0
 40
1.0
 40
1.0
 40
1.0
 10
287.1883367563112
 20
247.9998583411176
 30
0.0
 10
287.3116277719362
 20
248.0932421301801
 30
0.0
 10
287.6692937875612
 20
248.0932421301801
 30
0.0
  0
LINE
  5
413
330
1F
100
AcDbEntity
  8
APPARENT
100
AcDbLine
 10
288.9815496469362
 20
247.8918261145551
 30
0.0
 11
288.9864324594362
 21
247.8869433020551
 31
0.0
  0
LINE
  5
414
330
1F
100
AcDbEntity
  8
APPARENT
100
AcDbLine
 10
275.0118230844362
 20
246.5148729895551
 30
0.0
 11
275.0118230844362
 21
247.5671190833051
 31
0.0
  0
SPLINE
  5
415
330
1F
100
AcDbEntity
  8
APPARENT
100
AcDbSpline
210
0.0
220
0.0
230
1.0
 70
     8
 71
     2
 72
     6
 73
     3
 74
     0
 42
0.000000001
 43
0.000001
 12
1.0
 22
0.0
 32
0.0
 13
1.0
 23
0.0
 33
0.0
 40
0.0
 40
0.0
 40
0.0
 40
1.0
 40
1.0
 40
1.0
 10
267.9786961078643
 20
215.7768230438235
 30
0.0
 10
267.4513523578643
 20
215.7768230438235
 30
0.0
 10
267.3616306781768
 20
215.6596355438235
 30
0.0
  0
LINE
  5
416
330
1F
100
AcDbEntity
  8
APPARENT
100
AcDbLine
 10
268.9998601938112
 20
248.7365526770551
 30
0.0
 11
270.6929754281862
 21
248.7365526770551
 31
0.0
  0
SPLINE
  5
417
330
1F
100
AcDbEntity
  8
APPARENT
100
AcDbSpline
210
0.0
220
0.0
230
1.0
 70
     8
 71
     2
 72
     6
 73
     3
 74
     0
 42
0.000000001
 43
0.000001
 12
1.0
 22
0.0
 32
0.0
 13
1.0
 23
0.0
 33
0.0
 40
0.0
 40
0.0
 40
0.0
 40
1.0
 40
1.0
 40
1.0
 10
298.7593357563018
 20
214.0483074188235
 30
0.0
 10
298.8490574359893
 20
213.9311199188235
 30
0.0
 10
299.3764011859893
 20
213.9311199188235
 30
0.0
  0
LINE
  5
418
330
1F
100
AcDbEntity
  8
APPARENT
100
AcDbLine
 10
245.7619433403015
 20
246.8080501556399
 30
0.0
 11
245.5886034965515
 21
247.2780208587649
 31
0.0
  0
LINE
  5
419
330
1F
100
AcDbEntity
  8
APPARENT
100
AcDbLine
 10
244.5351366996765
 20
247.4672298431399
 30
0.0
 11
245.5153613090515
 21
247.4672298431399
 31
0.0
  0
SPLINE
  5
41A
330
1F
100
AcDbEntity
  8
APPARENT
100
AcDbSpline
210
0.0
220
0.0
230
1.0
 70
     8
 71
     2
 72
     6
 73
     3
 74
     0
 42
0.000000001
 43
0.000001
 12
1.0
 22
0.0
 32
0.0
 13
1.0
 23
0.0
 33
0.0
 40
0.0
 40
0.0
 40
0.0
 40
1.0
 40
1.0
 40
1.0
 10
284.9874090219362
 20
247.6293749426801
 30
0.0
 10
284.9874090219362
 20
248.2079882239301
 30
0.0
 10
285.0215887094362
 20
248.3569140051801
 30
0.0
  0
LINE
  5
41B
330
1F
100
AcDbEntity
  8
APPARENT
100
AcDbLine
 10
303.5093073844909
 20
213.7431316375735
 30
0.0
 11
303.5093073844909
 21
214.1431316375735
 31
0.0
  0
LINE
  5
41C
330
1F
100
AcDbEntity
  8
APPARENT
100
AcDbLine
 10
291.2099536516059
 20
217.8111483167541
 30
0.0
 11
291.6099536516059
 21
217.8111483167541
 31
0.0
  0
LINE
  5
41D
330
1F
100
AcDbEntity
  8
APPARENT
100
AcDbLine
 10
270.2418797016143
 20
213.7431316375735
 30
0.0
 11
270.2577488422393
 21
213.9469890594485
 31
0.0
  0
LINE
  5
41E
330
1F
100
AcDbEntity
  8
APPARENT
100
AcDbLine
 10
312.6198093891143
 20
213.7431316375735
 30
0.0
 11
312.3915379047393
 21
213.7431316375735
 31
0.0
  0
LINE
  5
41F
330
1F
100
AcDbEntity
  8
APPARENT
100
AcDbLine
 10
313.6989109516143
 20
213.7431316375735
 30
0.0
 11
313.4706394672393
 21
213.7431316375735
 31
0.0
  0
LINE
  5
420
330
1F
100
AcDbEntity
  8
APPARENT
100
AcDbLine
 10
311.9740574359893
 20
215.9648113250735
 30
0.0
 11
311.9740574359893
 21
213.7431316375735
 31
0.0
  0
LINE
  5
421
330
1F
100
AcDbEntity
  8
APPARENT
100
AcDbLine
 10
277.6180242563112
 20
247.0666308020551
 30
0.0
 11
277.6656316781862
 21
246.9506640051801
 31
0.0
  0
LINE
  5
422
330
1F
100
AcDbEntity
  8
APPARENT
100
AcDbLine
 10
276.7464422250612
 20
248.4142870520551
 30
0.0
 11
276.7464422250612
 21
246.5148729895551
 31
0.0
  0
LINE
  5
423
330
1F
100
AcDbEntity
  8
APPARENT
100
AcDbLine
 10
272.3119835853576
 20
213.7431316375735
 30
0.0
 11
272.3119835853576
 21
214.1431316375735
 31
0.0
  0
SPLINE
  5
424
330
1F
100
AcDbEntity
  8
APPARENT
100
AcDbSpline
210
0.0
220
0.0
230
1.0
 70
     8
 71
     2
 72
     6
 73
     3
 74
     0
 42
0.000000001
 43
0.000001
 12
1.0
 22
0.0
 32
0.0
 13
1.0
 23
0.0
 33
0.0
 40
0.0
 40
0.0
 40
0.0
 40
1.0
 40
1.0
 40
1.0
 10
286.7818426156862
 20
247.1728319739301
 30
0.0
 10
286.7818426156862
 20
246.7175097083051
 30
0.0
 10
286.6268133188112
 20
246.6045946692426
 30
0.0
  0
LINE
  5
425
330
1F
100
AcDbEntity
  8
APPARENT
100
AcDbLine
 10
257.3464159965515
 20
246.8080501556399
 30
0.0
 11
257.3464159965515
 21
249.0297298431399
 31
0.0
  0
LINE
  5
426
330
1F
100
AcDbEntity
  8
APPARENT
100
AcDbLine
 10
249.3813281059265
 20
247.7223567962649
 30
0.0
 11
250.0685839653015
 21
247.7223567962649
 31
0.0
  0
LINE
  5
427
330
1F
100
AcDbEntity
  8
APPARENT
100
AcDbLine
 10
270.8912937641143
 20
214.1032390594485
 30
0.0
 11
270.8912937641143
 21
215.1103191375735
 31
0.0
  0
SPLINE
  5
428
330
1F
100
AcDbEntity
  8
APPARENT
100
AcDbSpline
210
0.0
220
0.0
230
1.0
 70
     8
 71
     2
 72
     6
 73
     3
 74
     0
 42
0.000000001
 43
0.000001
 12
1.0
 22
0.0
 32
0.0
 13
1.0
 23
0.0
 33
0.0
 40
0.0
 40
0.0
 40
0.0
 40
1.0
 40
1.0
 40
1.0
 10
288.1954168344362
 20
247.9784960364301
 30
0.0
 10
288.3321355844362
 20
247.8637499426801
 30
0.0
 10
288.3321355844362
 20
247.5414843176801
 30
0.0
  0
LINE
  5
429
330
1F
100
AcDbEntity
  8
APPARENT
100
AcDbLine
 10
271.1195652484893
 20
215.2995281219485
 30
0.0
 11
271.7177097797393
 21
215.2995281219485
 31
0.0
  0
LINE
  5
42A
330
1F
100
AcDbEntity
  8
APPARENT
100
AcDbLine
 10
270.6929754281862
 20
248.7365526770551
 30
0.0
 11
270.6929754281862
 21
248.5033983801801
 31
0.0
  0
LINE
  5
42B
330
1F
100
AcDbEntity
  8
APPARENT
100
AcDbLine
 10
313.4706394672393
 20
213.7431316375735
 30
0.0
 11
313.4706394672393
 21
214.7953777313235
 31
0.0
  0
LINE
  5
42C
330
1F
100
AcDbEntity
  8
APPARENT
100
AcDbLine
 10
268.5628484750612
 20
248.0712694739301
 30
0.0
 11
268.7911199594362
 21
248.0712694739301
 31
0.0
  0
LINE
  5
42D
330
1F
100
AcDbEntity
  8
APPARENT
100
AcDbLine
 10
270.2418797016143
 20
215.2995281219485
 30
0.0
 11
270.4701511859893
 21
215.2995281219485
 31
0.0
  0
LINE
  5
42E
330
1F
100
AcDbEntity
  8
APPARENT
100
AcDbLine
 10
267.6461004281862
 20
246.8261522864301
 30
0.0
 11
267.6888250375612
 21
246.6918749426801
 31
0.0
  0
LINE
  5
42F
330
1F
100
AcDbEntity
  8
APPARENT
100
AcDbLine
 10
254.4325976371765
 20
247.4672298431399
 30
0.0
 11
253.9394335746765
 21
248.8246517181399
 31
0.0
  0
LINE
  5
430
330
1F
100
AcDbEntity
  8
APPARENT
100
AcDbLine
 10
321.0099536516059
 20
217.811148316754
 30
0.0
 11
321.0099536516059
 21
215.7431316375735
 31
0.0
  0
SPLINE
  5
431
330
1F
100
AcDbEntity
  8
APPARENT
100
AcDbSpline
210
0.0
220
0.0
230
1.0
 70
     8
 71
     2
 72
     6
 73
     3
 74
     0
 42
0.000000001
 43
0.000001
 12
1.0
 22
0.0
 32
0.0
 13
1.0
 23
0.0
 33
0.0
 40
0.0
 40
0.0
 40
0.0
 40
1.0
 40
1.0
 40
1.0
 10
290.1705144906862
 20
247.9229540442426
 30
0.0
 10
290.3023504281862
 20
248.0932421301801
 30
0.0
 10
290.6417058969362
 20
248.0932421301801
 30
0.0
  0
SPLINE
  5
432
330
1F
100
AcDbEntity
  8
APPARENT
100
AcDbSpline
210
0.0
220
0.0
230
1.0
 70
     8
 71
     2
 72
     6
 73
     3
 74
     0
 42
0.000000001
 43
0.000001
 12
1.0
 22
0.0
 32
0.0
 13
1.0
 23
0.0
 33
0.0
 40
0.0
 40
0.0
 40
0.0
 40
1.0
 40
1.0
 40
1.0
 10
285.1387762094362
 20
246.6912645911176
 30
0.0
 10
284.9874090219362
 20
246.8908495520551
 30
0.0
 10
284.9874090219362
 20
247.6293749426801
 30
0.0
  0
LINE
  5
433
330
1F
100
AcDbEntity
  8
APPARENT
100
AcDbLine
 10
274.1609930063112
 20
247.4511522864301
 30
0.0
 11
274.1609930063112
 21
246.5148729895551
 31
0.0
  0
LINE
  5
434
330
1F
100
AcDbEntity
  8
APPARENT
100
AcDbLine
 10
251.3759570121765
 20
246.8080501556399
 30
0.0
 11
250.6166796684265
 21
248.6244564056399
 31
0.0
  0
LINE
  5
435
330
1F
100
AcDbEntity
  8
APPARENT
100
AcDbLine
 10
250.7143359184265
 20
249.0297298431399
 30
0.0
 11
251.3075976371765
 21
247.5929622650149
 31
0.0
  0
SPLINE
  5
436
330
1F
100
AcDbEntity
  8
APPARENT
100
AcDbSpline
210
0.0
220
0.0
230
1.0
 70
     8
 71
     2
 72
     6
 73
     3
 74
     0
 42
0.000000001
 43
0.000001
 12
1.0
 22
0.0
 32
0.0
 13
1.0
 23
0.0
 33
0.0
 40
0.0
 40
0.0
 40
0.0
 40
1.0
 40
1.0
 40
1.0
 10
247.7394824028015
 20
248.9162044525149
 30
0.0
 10
247.9286913871765
 20
249.0529232025149
 30
0.0
 10
248.5549120903015
 20
249.0529232025149
 30
0.0
  0
LINE
  5
437
330
1F
100
AcDbEntity
  8
APPARENT
100
AcDbLine
 10
270.6764500141143
 20
215.2995281219485
 30
0.0
 11
270.8912937641143
 21
215.2995281219485
 31
0.0
  0
LINE
  5
438
330
1F
100
AcDbEntity
  8
APPARENT
100
AcDbLine
 10
271.5602390766143
 20
214.1325359344485
 30
0.0
 11
271.5614597797393
 21
214.2082195281985
 31
0.0
  0
SPLINE
  5
439
330
1F
100
AcDbEntity
  8
APPARENT
100
AcDbSpline
210
0.0
220
0.0
230
1.0
 70
     8
 71
     2
 72
     6
 73
     3
 74
     0
 42
0.000000001
 43
0.000001
 12
1.0
 22
0.0
 32
0.0
 13
1.0
 23
0.0
 33
0.0
 40
0.0
 40
0.0
 40
0.0
 40
1.0
 40
1.0
 40
1.0
 10
256.862407207489
 20
247.0503597259524
 30
0.0
 10
256.7116503715515
 20
246.8080501556399
 30
0.0
 10
256.2599902153015
 20
246.8080501556399
 30
0.0
  0
SPLINE
  5
43A
330
1F
100
AcDbEntity
  8
APPARENT
100
AcDbSpline
210
0.0
220
0.0
230
1.0
 70
     8
 71
     2
 72
     6
 73
     3
 74
     0
 42
0.000000001
 43
0.000001
 12
1.0
 22
0.0
 32
0.0
 13
1.0
 23
0.0
 33
0.0
 40
0.0
 40
0.0
 40
0.0
 40
1.0
 40
1.0
 40
1.0
 10
282.8743719125612
 20
246.8853563879926
 30
0.0
 10
282.9903387094362
 20
247.0446581458051
 30
0.0
 10
282.9903387094362
 20
247.5976366614301
 30
0.0
  0
LINE
  5
43B
330
1F
100
AcDbEntity
  8
APPARENT
100
AcDbLine
 10
286.7537664438112
 20
248.0578417395551
 30
0.0
 11
286.5047430063112
 21
248.0578417395551
 31
0.0
  0
ARC
  5
43C
330
1F
100
AcDbEntity
  8
APPARENT
100
AcDbCircle
 10
243.1436038995607
 20
247.9097460364301
 30
0.0
 40
1.75
100
AcDbArc
 50
90.0
 51
270.0
  0
SPLINE
  5
43D
330
1F
100
AcDbEntity
  8
APPARENT
100
AcDbSpline
210
0.0
220
0.0
230
1.0
 70
     8
 71
     2
 72
     6
 73
     3
 74
     0
 42
0.000000001
 43
0.000001
 12
1.0
 22
0.0
 32
0.0
 13
1.0
 23
0.0
 33
0.0
 40
0.0
 40
0.0
 40
0.0
 40
1.0
 40
1.0
 40
1.0
 10
270.2528660297393
 20
213.9518718719485
 30
0.0
 10
270.1344578266143
 20
213.7199382781985
 30
0.0
 10
269.7462742328643
 20
213.7199382781985
 30
0.0
  0
SPLINE
  5
43E
330
1F
100
AcDbEntity
  8
APPARENT
100
AcDbSpline
210
0.0
220
0.0
230
1.0
 70
     8
 71
     2
 72
     6
 73
     3
 74
     0
 42
0.000000001
 43
0.000001
 12
1.0
 22
0.0
 32
0.0
 13
1.0
 23
0.0
 33
0.0
 40
0.0
 40
0.0
 40
0.0
 40
1.0
 40
1.0
 40
1.0
 10
299.9946873188018
 20
214.0483074188235
 30
0.0
 10
300.0844089984893
 20
214.1654949188235
 30
0.0
 10
300.0844089984893
 20
214.8551921844485
 30
0.0
  0
LINE
  5
43F
330
1F
100
AcDbEntity
  8
APPARENT
100
AcDbLine
 10
273.5115789438112
 20
246.5148729895551
 30
0.0
 11
273.2833074594362
 21
246.5148729895551
 31
0.0
  0
SPLINE
  5
440
330
1F
100
AcDbEntity
  8
APPARENT
100
AcDbSpline
210
0.0
220
0.0
230
1.0
 70
     8
 71
     2
 72
     6
 73
     3
 74
     0
 42
0.000000001
 43
0.000001
 12
1.0
 22
0.0
 32
0.0
 13
1.0
 23
0.0
 33
0.0
 40
0.0
 40
0.0
 40
0.0
 40
1.0
 40
1.0
 40
1.0
 10
265.7576726938112
 20
247.0361132239301
 30
0.0
 10
265.7576726938112
 20
246.8237108801801
 30
0.0
 10
265.8278631234987
 20
246.7522997473676
 30
0.0
  0
SPLINE
  5
441
330
1F
100
AcDbEntity
  8
APPARENT
100
AcDbSpline
210
0.0
220
0.0
230
1.0
 70
     8
 71
     2
 72
     6
 73
     3
 74
     0
 42
0.000000001
 43
0.000001
 12
1.0
 22
0.0
 32
0.0
 13
1.0
 23
0.0
 33
0.0
 40
0.0
 40
0.0
 40
0.0
 40
1.0
 40
1.0
 40
1.0
 10
256.6738085746765
 20
248.6574153900149
 30
0.0
 10
256.5737109184265
 20
248.8185482025149
 30
0.0
 10
256.1940722465515
 20
248.8185482025149
 30
0.0
  0
LINE
  5
442
330
1F
100
AcDbEntity
  8
APPARENT
100
AcDbLine
 10
250.5336718559265
 20
248.8295345306399
 30
0.0
 11
250.5263476371765
 21
248.8295345306399
 31
0.0
  0
LINE
  5
443
330
1F
100
AcDbEntity
  8
APPARENT
100
AcDbLine
 10
271.7879461313112
 20
247.5561327551801
 30
0.0
 11
271.7940496469362
 21
247.5951952551801
 31
0.0
  0
LINE
  5
444
330
1F
100
AcDbEntity
  8
APPARENT
100
AcDbLine
 10
267.6058172250612
 20
246.9592089270551
 30
0.0
 11
267.6461004281862
 21
246.8261522864301
 31
0.0
  0
LINE
  5
445
330
1F
100
AcDbEntity
  8
APPARENT
100
AcDbLine
 10
291.6099536516059
 20
217.8111483167541
 30
0.0
 11
291.6099536516059
 21
215.7431316375735
 31
0.0
  0
SPLINE
  5
446
330
1F
100
AcDbEntity
  8
APPARENT
100
AcDbSpline
210
0.0
220
0.0
230
1.0
 70
     8
 71
     2
 72
     6
 73
     3
 74
     0
 42
0.000000001
 43
0.000001
 12
1.0
 22
0.0
 32
0.0
 13
1.0
 23
0.0
 33
0.0
 40
0.0
 40
0.0
 40
0.0
 40
1.0
 40
1.0
 40
1.0
 10
288.1148504281862
 20
246.9738573645551
 30
0.0
 10
288.1148504281862
 20
247.1581835364301
 30
0.0
 10
288.0214666391237
 20
247.2216600989301
 30
0.0
  0
SPLINE
  5
447
330
1F
100
AcDbEntity
  8
APPARENT
100
AcDbSpline
210
0.0
220
0.0
230
1.0
 70
     8
 71
     2
 72
     6
 73
     3
 74
     0
 42
0.000000001
 43
0.000001
 12
1.0
 22
0.0
 32
0.0
 13
1.0
 23
0.0
 33
0.0
 40
0.0
 40
0.0
 40
0.0
 40
1.0
 40
1.0
 40
1.0
 10
247.5441699028015
 20
248.6500911712649
 30
0.0
 10
247.5783495903015
 20
248.7990169525149
 30
0.0
 10
247.7394824028015
 20
248.9162044525149
 30
0.0
  0
LINE
  5
448
330
1F
100
AcDbEntity
  8
APPARENT
100
AcDbLine
 10
271.5614597797393
 20
214.2082195281985
 30
0.0
 11
271.5651218891143
 21
214.2948894500735
 31
0.0
  0
LINE
  5
449
330
1F
100
AcDbEntity
  8
APPARENT
100
AcDbLine
 10
270.6764500141143
 20
215.1103191375735
 30
0.0
 11
270.6764500141143
 21
215.2995281219485
 31
0.0
  0
LINE
  5
44A
330
1F
100
AcDbEntity
  8
APPARENT
100
AcDbLine
 10
249.2751269340515
 20
248.4120540618899
 30
0.0
 11
249.2763476371765
 21
248.3510189056399
 31
0.0
  0
LINE
  5
44B
330
1F
100
AcDbEntity
  8
APPARENT
100
AcDbLine
 10
264.8775457406862
 20
246.9848436926801
 30
0.0
 11
263.7532781625612
 21
246.9848436926801
 31
0.0
  0
SPLINE
  5
44C
330
1F
100
AcDbEntity
  8
APPARENT
100
AcDbSpline
210
0.0
220
0.0
230
1.0
 70
     8
 71
     2
 72
     6
 73
     3
 74
     0
 42
0.000000001
 43
0.000001
 12
1.0
 22
0.0
 32
0.0
 13
1.0
 23
0.0
 33
0.0
 40
0.0
 40
0.0
 40
0.0
 40
1.0
 40
1.0
 40
1.0
 10
287.2383855844362
 20
246.9921679114301
 30
0.0
 10
287.2383855844362
 20
246.8029589270551
 30
0.0
 10
287.3165105844362
 20
246.7419237708051
 30
0.0
  0
LINE
  5
44D
330
1F
100
AcDbEntity
  8
APPARENT
100
AcDbLine
 10
277.6656316781862
 20
246.9506640051801
 30
0.0
 11
277.7107976938112
 21
246.8359179114301
 31
0.0
  0
LINE
  5
44E
330
1F
100
AcDbEntity
  8
APPARENT
100
AcDbLine
 10
312.6051609516143
 20
215.0883464813235
 30
0.0
 11
312.6112644672393
 21
215.0834636688235
 31
0.0
  0
SPLINE
  5
44F
330
1F
100
AcDbEntity
  8
APPARENT
100
AcDbSpline
210
0.0
220
0.0
230
1.0
 70
     8
 71
     2
 72
     6
 73
     3
 74
     0
 42
0.000000001
 43
0.000001
 12
1.0
 22
0.0
 32
0.0
 13
1.0
 23
0.0
 33
0.0
 40
0.0
 40
0.0
 40
0.0
 40
1.0
 40
1.0
 40
1.0
 10
301.6505711078643
 20
213.9518718719485
 30
0.0
 10
301.5321629047393
 20
213.7199382781985
 30
0.0
 10
301.1439793109893
 20
213.7199382781985
 30
0.0
  0
SPLINE
  5
450
330
1F
100
AcDbEntity
  8
APPARENT
100
AcDbSpline
210
0.0
220
0.0
230
1.0
 70
     8
 71
     2
 72
     6
 73
     3
 74
     0
 42
0.000000001
 43
0.000001
 12
1.0
 22
0.0
 32
0.0
 13
1.0
 23
0.0
 33
0.0
 40
0.0
 40
0.0
 40
0.0
 40
1.0
 40
1.0
 40
1.0
 10
248.5549120903015
 20
249.0529232025149
 30
0.0
 10
248.9797167778015
 20
249.0529232025149
 30
0.0
 10
249.1274218559265
 20
248.9210872650149
 30
0.0
  0
LINE
  5
451
330
1F
100
AcDbEntity
  8
APPARENT
100
AcDbLine
 10
269.9752019906862
 20
246.5148729895551
 30
0.0
 11
269.7249578500612
 21
246.5148729895551
 31
0.0
  0
LINE
  5
452
330
1F
100
AcDbEntity
  8
APPARENT
100
AcDbLine
 10
251.4491991996765
 20
247.2438411712649
 30
0.0
 11
251.4943652153015
 21
247.1290950775149
 31
0.0
  0
LINE
  5
453
330
1F
100
AcDbEntity
  8
APPARENT
100
AcDbLine
 10
246.0231738090515
 20
246.8080501556399
 30
0.0
 11
245.7619433403015
 21
246.8080501556399
 31
0.0
  0
LINE
  5
454
330
1F
100
AcDbEntity
  8
APPARENT
100
AcDbLine
 10
278.6617254281862
 20
248.5070604895551
 30
0.0
 11
278.6421941781862
 21
248.4570116614301
 31
0.0
  0
LINE
  5
455
330
1F
100
AcDbEntity
  8
APPARENT
100
AcDbLine
 10
246.0878710746765
 20
248.3644466400149
 30
0.0
 11
246.3613085746765
 21
248.3644466400149
 31
0.0
  0
LINE
  5
456
330
1F
100
AcDbEntity
  8
APPARENT
100
AcDbLine
 10
246.5932421684265
 20
247.6222591400149
 30
0.0
 11
246.0878710746765
 21
248.3644466400149
 31
0.0
  0
SPLINE
  5
457
330
1F
100
AcDbEntity
  8
APPARENT
100
AcDbSpline
210
0.0
220
0.0
230
1.0
 70
     8
 71
     2
 72
     6
 73
     3
 74
     0
 42
0.000000001
 43
0.000001
 12
1.0
 22
0.0
 32
0.0
 13
1.0
 23
0.0
 33
0.0
 40
0.0
 40
0.0
 40
0.0
 40
1.0
 40
1.0
 40
1.0
 10
267.1864597797393
 20
213.903654098511
 30
0.0
 10
267.0326511859893
 20
214.0873699188235
 30
0.0
 10
267.0326511859893
 20
214.8551921844485
 30
0.0
  0
LINE
  5
458
330
1F
100
AcDbEntity
  8
APPARENT
100
AcDbLine
 10
253.7587695121765
 20
249.0297298431399
 30
0.0
 11
254.1103320121765
 21
249.0297298431399
 31
0.0
  0
SPLINE
  5
459
330
1F
100
AcDbEntity
  8
APPARENT
100
AcDbSpline
210
0.0
220
0.0
230
1.0
 70
     8
 71
     2
 72
     6
 73
     3
 74
     0
 42
0.000000001
 43
0.000001
 12
1.0
 22
0.0
 32
0.0
 13
1.0
 23
0.0
 33
0.0
 40
0.0
 40
0.0
 40
0.0
 40
1.0
 40
1.0
 40
1.0
 10
247.849956035614
 20
247.1571712493899
 30
0.0
 10
247.9299120903015
 20
246.9960384368899
 30
0.0
 10
248.3962206840515
 20
246.9960384368899
 30
0.0
  0
SPLINE
  5
45A
330
1F
100
AcDbEntity
  8
APPARENT
100
AcDbSpline
210
0.0
220
0.0
230
1.0
 70
     8
 71
     2
 72
     6
 73
     3
 74
     0
 42
0.000000001
 43
0.000001
 12
1.0
 22
0.0
 32
0.0
 13
1.0
 23
0.0
 33
0.0
 40
0.0
 40
0.0
 40
0.0
 40
1.0
 40
1.0
 40
1.0
 10
256.8434863090515
 20
248.8197689056399
 30
0.0
 10
257.0131640434265
 20
248.6098079681399
 30
0.0
 10
257.0131640434265
 20
248.0153255462649
 30
0.0
  0
LINE
  5
45B
330
1F
100
AcDbEntity
  8
APPARENT
100
AcDbLine
 10
311.9740574359893
 20
213.7431316375735
 30
0.0
 11
311.7238132953643
 21
213.7431316375735
 31
0.0
  0
SPLINE
  5
45C
330
1F
100
AcDbEntity
  8
APPARENT
100
AcDbSpline
210
0.0
220
0.0
230
1.0
 70
     8
 71
     2
 72
     6
 73
     3
 74
     0
 42
0.000000001
 43
0.000001
 12
1.0
 22
0.0
 32
0.0
 13
1.0
 23
0.0
 33
0.0
 40
0.0
 40
0.0
 40
0.0
 40
1.0
 40
1.0
 40
1.0
 10
290.0386785531862
 20
247.3156542395551
 30
0.0
 10
290.0386785531862
 20
247.7526659583051
 30
0.0
 10
290.1705144906862
 20
247.9229540442426
 30
0.0
  0
LINE
  5
45D
330
1F
100
AcDbEntity
  8
APPARENT
100
AcDbLine
 10
271.7177097797393
 20
215.2995281219485
 30
0.0
 11
271.7177097797393
 21
215.1103191375735
 31
0.0
  0
SPLINE
  5
45E
330
1F
100
AcDbEntity
  8
APPARENT
100
AcDbSpline
210
0.0
220
0.0
230
1.0
 70
     8
 71
     2
 72
     6
 73
     3
 74
     0
 42
0.000000001
 43
0.000001
 12
1.0
 22
0.0
 32
0.0
 13
1.0
 23
0.0
 33
0.0
 40
0.0
 40
0.0
 40
0.0
 40
1.0
 40
1.0
 40
1.0
 10
251.5468554496765
 20
247.2438411712649
 30
0.0
 10
251.5810351371765
 20
247.3268489837649
 30
0.0
 10
251.5920214653015
 20
247.3598079681399
 30
0.0
  0
LINE
  5
45F
330
1F
100
AcDbEntity
  8
APPARENT
100
AcDbLine
 10
278.6421941781862
 20
248.4570116614301
 30
0.0
 11
278.6006902719362
 21
248.3532518958051
 31
0.0
  0
LINE
  5
460
330
1F
100
AcDbEntity
  8
APPARENT
100
AcDbLine
 10
254.6791796684265
 20
246.8080501556399
 30
0.0
 11
254.5058398246765
 21
247.2780208587649
 31
0.0
  0
LINE
  5
461
330
1F
100
AcDbEntity
  8
APPARENT
100
AcDbLine
 10
267.7730535531862
 20
246.9579882239301
 30
0.0
 11
267.8560613656862
 21
247.2216600989301
 31
0.0
  0
SPLINE
  5
462
330
1F
100
AcDbEntity
  8
APPARENT
100
AcDbSpline
210
0.0
220
0.0
230
1.0
 70
     8
 71
     2
 72
     6
 73
     3
 74
     0
 42
0.000000001
 43
0.000001
 12
1.0
 22
0.0
 32
0.0
 13
1.0
 23
0.0
 33
0.0
 40
0.0
 40
0.0
 40
0.0
 40
1.0
 40
1.0
 40
1.0
 10
290.6417058969362
 20
248.0932421301801
 30
0.0
 10
291.0665105844362
 20
248.0932421301801
 30
0.0
 10
291.1482976938112
 20
247.8747362708051
 30
0.0
  0
LINE
  5
463
330
1F
100
AcDbEntity
  8
APPARENT
100
AcDbLine
 10
285.1625339984893
 20
213.7431316375735
 30
0.0
 11
285.1625339984893
 21
215.2995281219485
 31
0.0
  0
LINE
  5
464
330
1F
100
AcDbEntity
  8
APPARENT
100
AcDbLine
 10
314.216082572937
 20
214.1431316375735
 30
0.0
 11
319.0099536516059
 21
214.1431316375735
 31
0.0
  0
SPLINE
  5
465
330
1F
100
AcDbEntity
  8
APPARENT
100
AcDbSpline
210
0.0
220
0.0
230
1.0
 70
     8
 71
     2
 72
     6
 73
     3
 74
     0
 42
0.000000001
 43
0.000001
 12
1.0
 22
0.0
 32
0.0
 13
1.0
 23
0.0
 33
0.0
 40
0.0
 40
0.0
 40
0.0
 40
1.0
 40
1.0
 40
1.0
 10
269.7731297016143
 20
213.9091472625735
 30
0.0
 10
270.0416843891143
 20
213.9091472625735
 30
0.0
 10
270.1417820453643
 20
214.015958786011
 30
0.0
  0
LINE
  5
466
330
1F
100
AcDbEntity
  8
APPARENT
100
AcDbLine
 10
245.5153613090515
 20
247.4672298431399
 30
0.0
 11
245.0221972465515
 21
248.8246517181399
 31
0.0
  0
LINE
  5
467
330
1F
100
AcDbEntity
  8
APPARENT
100
AcDbLine
 10
269.9752019906862
 20
248.5033983801801
 30
0.0
 11
269.9752019906862
 21
246.5148729895551
 31
0.0
  0
LINE
  5
468
330
1F
100
AcDbEntity
  8
APPARENT
100
AcDbLine
 10
311.7238132953643
 20
213.7431316375735
 30
0.0
 11
311.7238132953643
 21
215.9648113250735
 31
0.0
  0
LINE
  5
469
330
1F
100
AcDbEntity
  8
APPARENT
100
AcDbLine
 10
268.6867039203643
 20
214.9992351531985
 30
0.0
 11
268.6854832172393
 21
215.2104167938235
 31
0.0
  0
LINE
  5
46A
330
1F
100
AcDbEntity
  8
APPARENT
100
AcDbLine
 10
276.8331121469362
 20
248.3312792395551
 30
0.0
 11
276.7891668344362
 21
248.4338183020551
 31
0.0
  0
LINE
  5
46B
330
1F
100
AcDbEntity
  8
APPARENT
100
AcDbLine
 10
302.5172703266143
 20
215.1103191375735
 30
0.0
 11
302.5172703266143
 21
214.1581707000735
 31
0.0
  0
LINE
  5
46C
330
1F
100
AcDbEntity
  8
APPARENT
100
AcDbLine
 10
291.1482976938112
 20
247.8747362708051
 30
0.0
 11
291.1531805063112
 21
247.8771776770551
 31
0.0
  0
LINE
  5
46D
330
1F
100
AcDbEntity
  8
APPARENT
100
AcDbLine
 10
319.0099536516059
 20
213.7431316375735
 30
0.0
 11
314.216082572937
 21
213.7431316375735
 31
0.0
  0
LINE
  5
46E
330
1F
100
AcDbEntity
  8
APPARENT
100
AcDbLine
 10
272.0149969125612
 20
247.6635546301801
 30
0.0
 11
272.0125555063112
 21
247.5561327551801
 31
0.0
  0
LINE
  5
46F
330
1F
100
AcDbEntity
  8
APPARENT
100
AcDbLine
 10
288.0989812875612
 20
247.3010058020551
 30
0.0
 11
288.1038641000612
 21
247.3022265051801
 31
0.0
  0
LINE
  5
470
330
1F
100
AcDbEntity
  8
APPARENT
100
AcDbLine
 10
267.2444891000612
 20
248.0712694739301
 30
0.0
 11
267.5191473031862
 21
247.2241015051801
 31
0.0
  0
SPLINE
  5
471
330
1F
100
AcDbEntity
  8
APPARENT
100
AcDbSpline
210
0.0
220
0.0
230
1.0
 70
     8
 71
     2
 72
     6
 73
     3
 74
     0
 42
0.000000001
 43
0.000001
 12
1.0
 22
0.0
 32
0.0
 13
1.0
 23
0.0
 33
0.0
 40
0.0
 40
0.0
 40
0.0
 40
1.0
 40
1.0
 40
1.0
 10
313.5811131000518
 20
215.2043132781985
 30
0.0
 10
313.6989109516143
 20
215.0871257781985
 30
0.0
 10
313.6989109516143
 20
214.7563152313235
 30
0.0
  0
LINE
  5
472
330
1F
100
AcDbEntity
  8
APPARENT
100
AcDbLine
 10
270.8912937641143
 20
215.2995281219485
 30
0.0
 11
270.8912937641143
 21
215.6742839813235
 31
0.0
  0
SPLINE
  5
473
330
1F
100
AcDbEntity
  8
APPARENT
100
AcDbSpline
210
0.0
220
0.0
230
1.0
 70
     8
 71
     2
 72
     6
 73
     3
 74
     0
 42
0.000000001
 43
0.000001
 12
1.0
 22
0.0
 32
0.0
 13
1.0
 23
0.0
 33
0.0
 40
0.0
 40
0.0
 40
0.0
 40
1.0
 40
1.0
 40
1.0
 10
286.5035223031862
 20
248.1262011145551
 30
0.0
 10
286.5035223031862
 20
248.3947558020551
 30
0.0
 10
286.4162420297487
 20
248.4716600989301
 30
0.0
  0
LINE
  5
474
330
1F
100
AcDbEntity
  8
APPARENT
100
AcDbLine
 10
270.8912937641143
 20
215.6742839813235
 30
0.0
 11
271.1195652484893
 21
215.6742839813235
 31
0.0
  0
LINE
  5
475
330
1F
100
AcDbEntity
  8
APPARENT
100
AcDbLine
 10
302.2889988422393
 20
214.1032390594485
 30
0.0
 11
302.2889988422393
 21
215.1103191375735
 31
0.0
  0
LINE
  5
476
330
1F
100
AcDbEntity
  8
APPARENT
100
AcDbLine
 10
288.7764715219362
 20
246.5148729895551
 30
0.0
 11
288.7764715219362
 21
248.0712694739301
 31
0.0
  0
SPLINE
  5
477
330
1F
100
AcDbEntity
  8
APPARENT
100
AcDbSpline
210
0.0
220
0.0
230
1.0
 70
     8
 71
     2
 72
     6
 73
     3
 74
     0
 42
0.000000001
 43
0.000001
 12
1.0
 22
0.0
 32
0.0
 13
1.0
 23
0.0
 33
0.0
 40
0.0
 40
0.0
 40
0.0
 40
1.0
 40
1.0
 40
1.0
 10
290.3609441781862
 20
247.7874559973676
 30
0.0
 10
290.2779363656862
 20
247.6708788489301
 30
0.0
 10
290.2779363656862
 20
247.3168749426801
 30
0.0
  0
LINE
  5
478
330
1F
100
AcDbEntity
  8
APPARENT
100
AcDbLine
 10
252.2780566215515
 20
249.0297298431399
 30
0.0
 11
252.7187304496765
 21
249.0297298431399
 31
0.0
  0
SPLINE
  5
479
330
1F
100
AcDbEntity
  8
APPARENT
100
AcDbSpline
210
0.0
220
0.0
230
1.0
 70
     8
 71
     2
 72
     6
 73
     3
 74
     0
 42
0.000000001
 43
0.000001
 12
1.0
 22
0.0
 32
0.0
 13
1.0
 23
0.0
 33
0.0
 40
0.0
 40
0.0
 40
0.0
 40
1.0
 40
1.0
 40
1.0
 10
300.3236668109893
 20
214.8844890594485
 30
0.0
 10
300.3236668109893
 20
214.0910320281985
 30
0.0
 10
300.1722996234893
 20
213.9054851531985
 30
0.0
  0
LINE
  5
47A
330
1F
100
AcDbEntity
  8
APPARENT
100
AcDbLine
 10
249.2763476371765
 20
248.3510189056399
 30
0.0
 11
249.0273241996765
 21
248.3510189056399
 31
0.0
  0
LINE
  5
47B
330
1F
100
AcDbEntity
  8
APPARENT
100
AcDbLine
 10
268.9998601938112
 20
248.5033983801801
 30
0.0
 11
268.9998601938112
 21
248.7365526770551
 31
0.0
  0
SPLINE
  5
47C
330
1F
100
AcDbEntity
  8
APPARENT
100
AcDbSpline
210
0.0
220
0.0
230
1.0
 70
     8
 71
     2
 72
     6
 73
     3
 74
     0
 42
0.000000001
 43
0.000001
 12
1.0
 22
0.0
 32
0.0
 13
1.0
 23
0.0
 33
0.0
 40
0.0
 40
0.0
 40
0.0
 40
1.0
 40
1.0
 40
1.0
 10
289.6419500375612
 20
247.5951952551801
 30
0.0
 10
289.6468328500612
 20
247.6574511145551
 30
0.0
 10
289.6468328500612
 20
247.6782030676801
 30
0.0
  0
SPLINE
  5
47D
330
1F
100
AcDbEntity
  8
APPARENT
100
AcDbSpline
210
0.0
220
0.0
230
1.0
 70
     8
 71
     2
 72
     6
 73
     3
 74
     0
 42
0.000000001
 43
0.000001
 12
1.0
 22
0.0
 32
0.0
 13
1.0
 23
0.0
 33
0.0
 40
0.0
 40
0.0
 40
0.0
 40
1.0
 40
1.0
 40
1.0
 10
287.1309637094362
 20
247.3547167395551
 30
0.0
 10
287.2627996469362
 20
247.4621386145551
 30
0.0
 10
287.6070379281862
 20
247.4621386145551
 30
0.0
  0
LINE
  5
47E
330
1F
100
AcDbEntity
  8
APPARENT
100
AcDbLine
 10
283.8130926156862
 20
246.5148729895551
 30
0.0
 11
283.5628484750612
 21
246.5148729895551
 31
0.0
  0
SPLINE
  5
47F
330
1F
100
AcDbEntity
  8
APPARENT
100
AcDbSpline
210
0.0
220
0.0
230
1.0
 70
     8
 71
     2
 72
     6
 73
     3
 74
     0
 42
0.000000001
 43
0.000001
 12
1.0
 22
0.0
 32
0.0
 13
1.0
 23
0.0
 33
0.0
 40
0.0
 40
0.0
 40
0.0
 40
1.0
 40
1.0
 40
1.0
 10
299.9592869281768
 20
215.677335739136
 30
0.0
 10
299.8353855609893
 20
215.7768230438235
 30
0.0
 10
299.3764011859893
 20
215.7768230438235
 30
0.0
  0
LINE
  5
480
330
1F
100
AcDbEntity
  8
APPARENT
100
AcDbLine
 10
298.4303562641143
 20
214.8551921844485
 30
0.0
 11
298.4303562641143
 21
215.0114421844485
 31
0.0
  0
LINE
  5
481
330
1F
100
AcDbEntity
  8
APPARENT
100
AcDbLine
 10
280.6490301156862
 20
247.1740526770551
 30
0.0
 11
280.1558660531862
 21
248.5314745520551
 31
0.0
  0
LINE
  5
482
330
1F
100
AcDbEntity
  8
APPARENT
100
AcDbLine
 10
252.7187304496765
 20
249.0297298431399
 30
0.0
 11
252.7187304496765
 21
246.8080501556399
 31
0.0
  0
LINE
  5
483
330
1F
100
AcDbEntity
  8
APPARENT
100
AcDbLine
 10
252.4452929496765
 20
248.8002376556399
 30
0.0
 11
252.4257616996765
 21
248.7501888275149
 31
0.0
  0
LINE
  5
484
330
1F
100
AcDbEntity
  8
APPARENT
100
AcDbLine
 10
273.9327215219362
 20
248.0712694739301
 30
0.0
 11
274.1524480844362
 21
248.0712694739301
 31
0.0
  0
LINE
  5
485
330
1F
100
AcDbEntity
  8
APPARENT
100
AcDbLine
 10
252.4684863090515
 20
248.7196712493899
 30
0.0
 11
252.4697070121765
 21
248.7855892181399
 31
0.0
  0
LINE
  5
486
330
1F
100
AcDbEntity
  8
APPARENT
100
AcDbLine
 10
300.0844089984893
 20
214.9992351531985
 30
0.0
 11
300.0831882953643
 21
215.2104167938235
 31
0.0
  0
LINE
  5
487
330
1F
100
AcDbEntity
  8
APPARENT
100
AcDbLine
 10
253.3815722465515
 20
247.2780208587649
 30
0.0
 11
253.2106738090515
 21
246.8080501556399
 31
0.0
  0
SPLINE
  5
488
330
1F
100
AcDbEntity
  8
APPARENT
100
AcDbSpline
210
0.0
220
0.0
230
1.0
 70
     8
 71
     2
 72
     6
 73
     3
 74
     0
 42
0.000000001
 43
0.000001
 12
1.0
 22
0.0
 32
0.0
 13
1.0
 23
0.0
 33
0.0
 40
0.0
 40
0.0
 40
0.0
 40
1.0
 40
1.0
 40
1.0
 10
272.4959539438112
 20
246.7419237708051
 30
0.0
 10
272.5740789438112
 20
246.6808886145551
 30
0.0
 10
272.8133367563112
 20
246.6808886145551
 30
0.0
  0
LINE
  5
48A
330
1F
100
AcDbEntity
  8
ARETES TANGENTES
100
AcDbLine
 10
241.066851115638
 20
222.6369442138673
 30
0.0
 11
241.1662093198429
 21
222.6369442138673
 31
0.0
  0
LINE
  5
48B
330
1F
100
AcDbEntity
  8
ARETES TANGENTES
100
AcDbLine
 10
241.066851115638
 20
222.6369442138673
 30
0.0
 11
239.9099536516059
 21
222.6369442138673
 31
0.0
  0
LINE
  5
48C
330
1F
100
AcDbEntity
  8
ARETES TANGENTES
100
AcDbLine
 10
235.6536979833688
 20
222.6369442138673
 30
0.0
 11
235.7530561875737
 21
222.6369442138673
 31
0.0
  0
LINE
  5
48D
330
1F
100
AcDbEntity
  8
ARETES TANGENTES
100
AcDbLine
 10
236.9099536516059
 20
222.6369442138673
 30
0.0
 11
235.7530561875737
 21
222.6369442138673
 31
0.0
  0
LINE
  5
48E
330
1F
100
AcDbEntity
  8
ARETES TANGENTES
100
AcDbLine
 10
329.4668511156378
 20
222.6369442138673
 30
0.0
 11
329.5662093198427
 21
222.6369442138673
 31
0.0
  0
LINE
  5
48F
330
1F
100
AcDbEntity
  8
ARETES TANGENTES
100
AcDbLine
 10
329.4668511156378
 20
222.6369442138673
 30
0.0
 11
328.3099536516057
 21
222.6369442138673
 31
0.0
  0
LINE
  5
490
330
1F
100
AcDbEntity
  8
ARETES TANGENTES
100
AcDbLine
 10
324.0536979833686
 20
222.6369442138673
 30
0.0
 11
324.1530561875736
 21
222.6369442138673
 31
0.0
  0
LINE
  5
491
330
1F
100
AcDbEntity
  8
ARETES TANGENTES
100
AcDbLine
 10
325.3099536516057
 20
222.6369442138673
 30
0.0
 11
324.1530561875736
 21
222.6369442138673
 31
0.0
  0
LINE
  5
492
330
1F
100
AcDbEntity
  8
ARETES TANGENTES
100
AcDbLine
 10
252.1999536516063
 20
228.7378650812235
 30
0.0
 11
252.5999536516063
 21
228.7378650812235
 31
0.0
  0
LINE
  5
493
330
1F
100
AcDbEntity
  8
ARETES TANGENTES
100
AcDbLine
 10
254.0999536516063
 20
228.7378650812235
 30
0.0
 11
254.4999536516063
 21
228.7378650812235
 31
0.0
  0
LINE
  5
494
330
1F
100
AcDbEntity
  8
ARETES TANGENTES
100
AcDbLine
 10
260.6149536516062
 20
231.5909442138674
 30
0.0
 11
260.5149536516063
 21
231.5909442138674
 31
0.0
  0
LINE
  5
495
330
1F
100
AcDbEntity
  8
ARETES TANGENTES
100
AcDbLine
 10
245.2349536516063
 20
231.5909442138675
 30
0.0
 11
245.1349536516063
 21
231.5909442138675
 31
0.0
  0
LINE
  5
496
330
1F
100
AcDbEntity
  8
ARETES TANGENTES
100
AcDbLine
 10
250.2999536516063
 20
228.7378650812235
 30
0.0
 11
250.6999536516063
 21
228.7378650812235
 31
0.0
  0
LINE
  5
497
330
1F
100
AcDbEntity
  8
ARETES TANGENTES
100
AcDbLine
 10
256.4132945021047
 20
231.5909442138675
 30
0.0
 11
256.9490712986651
 21
231.5909442138675
 31
0.0
  0
LINE
  5
498
330
1F
100
AcDbEntity
  8
ARETES TANGENTES
100
AcDbLine
 10
253.8808360045475
 20
231.5909442138675
 30
0.0
 11
254.4166128020724
 21
231.5909442138675
 31
0.0
  0
LINE
  5
499
330
1F
100
AcDbEntity
  8
ARETES TANGENTES
100
AcDbLine
 10
251.3332945021047
 20
231.5909442138675
 30
0.0
 11
251.8690712986651
 21
231.5909442138675
 31
0.0
  0
LINE
  5
49A
330
1F
100
AcDbEntity
  8
ARETES TANGENTES
100
AcDbLine
 10
248.8008360045474
 20
231.5909442138675
 30
0.0
 11
249.3366128020724
 21
231.5909442138675
 31
0.0
  0
LINE
  5
49B
330
1F
100
AcDbEntity
  8
ARETES TANGENTES
100
AcDbLine
 10
253.1499536516063
 20
228.7378650812235
 30
0.0
 11
253.5499536516063
 21
228.7378650812235
 31
0.0
  0
LINE
  5
49C
330
1F
100
AcDbEntity
  8
ARETES TANGENTES
100
AcDbLine
 10
255.9999536516063
 20
228.7378650812235
 30
0.0
 11
256.3999536516063
 21
228.7378650812235
 31
0.0
  0
LINE
  5
49D
330
1F
100
AcDbEntity
  8
ARETES TANGENTES
100
AcDbLine
 10
255.0499536516063
 20
228.7378650812235
 30
0.0
 11
255.4499536516063
 21
228.7378650812235
 31
0.0
  0
LINE
  5
49E
330
1F
100
AcDbEntity
  8
ARETES TANGENTES
100
AcDbLine
 10
249.3499536516063
 20
228.7378650812235
 30
0.0
 11
249.7499536516063
 21
228.7378650812235
 31
0.0
  0
LINE
  5
49F
330
1F
100
AcDbEntity
  8
ARETES TANGENTES
100
AcDbLine
 10
251.2499536516063
 20
228.7378650812235
 30
0.0
 11
251.6499536516063
 21
228.7378650812235
 31
0.0
  0
LINE
  5
4A0
330
1F
100
AcDbEntity
  8
ARETES TANGENTES
100
AcDbLine
 10
250.7449536516063
 20
218.3409442138675
 30
0.0
 11
255.0049536516063
 21
218.3409442138675
 31
0.0
  0
LINE
  5
4A1
330
1F
100
AcDbEntity
  8
ARETES TANGENTES
100
AcDbLine
 10
247.5518728036937
 20
224.1909442138675
 30
0.0
 11
247.5518728036937
 21
226.1909442138675
 31
0.0
  0
LINE
  5
4A2
330
1F
100
AcDbEntity
  8
ARETES TANGENTES
100
AcDbLine
 10
258.1980344995189
 20
224.1909442138675
 30
0.0
 11
258.1980344995189
 21
226.1909442138675
 31
0.0
  0
LINE
  5
4A3
330
1F
100
AcDbEntity
  8
ARETES TANGENTES
100
AcDbLine
 10
245.2349536516062
 20
220.8859442138674
 30
0.0
 11
245.2349536516062
 21
218.1409442138674
 31
0.0
  0
LINE
  5
4A4
330
1F
100
AcDbEntity
  8
ARETES TANGENTES
100
AcDbLine
 10
251.329532130594
 20
231.7597114245681
 30
0.0
 11
249.3403751726185
 21
231.7597114245681
 31
0.0
  0
LINE
  5
4A5
330
1F
100
AcDbEntity
  8
ARETES TANGENTES
100
AcDbLine
 10
260.5149536516063
 20
231.4909442138674
 30
0.0
 11
260.5149536516063
 21
229.0459442138674
 31
0.0
  0
LINE
  5
4A6
330
1F
100
AcDbEntity
  8
ARETES TANGENTES
100
AcDbLine
 10
245.1349536516063
 20
228.801653631211
 30
0.0
 11
244.9349536516063
 21
228.801653631211
 31
0.0
  0
LINE
  5
4A7
330
1F
100
AcDbEntity
  8
ARETES TANGENTES
100
AcDbLine
 10
246.7949536516062
 20
224.1909442138675
 30
0.0
 11
246.7949536516062
 21
226.1909442138675
 31
0.0
  0
LINE
  5
4A8
330
1F
100
AcDbEntity
  8
ARETES TANGENTES
100
AcDbLine
 10
245.1349536516063
 20
226.2102347965239
 30
0.0
 11
244.9349536516063
 21
226.2102347965239
 31
0.0
  0
LINE
  5
4A9
330
1F
100
AcDbEntity
  8
ARETES TANGENTES
100
AcDbLine
 10
256.7106630689498
 20
231.6909442138675
 30
0.0
 11
256.7106630689498
 21
231.7909442138675
 31
0.0
  0
LINE
  5
4AA
330
1F
100
AcDbEntity
  8
ARETES TANGENTES
100
AcDbLine
 10
260.5149536516063
 20
225.9659442138675
 30
0.0
 11
260.5149536516063
 21
223.9659442138674
 31
0.0
  0
LINE
  5
4AB
330
1F
100
AcDbEntity
  8
ARETES TANGENTES
100
AcDbLine
 10
249.0392442342628
 20
231.6909442138675
 30
0.0
 11
249.0392442342628
 21
231.7909442138675
 31
0.0
  0
LINE
  5
4AC
330
1F
100
AcDbEntity
  8
ARETES TANGENTES
100
AcDbLine
 10
260.5149536516063
 20
231.4909442138674
 30
0.0
 11
256.9549536516063
 21
231.4909442138674
 31
0.0
  0
LINE
  5
4AD
330
1F
100
AcDbEntity
  8
ARETES TANGENTES
100
AcDbLine
 10
254.3191577851556
 20
231.6909442138675
 30
0.0
 11
254.3191577851556
 21
231.7909442138675
 31
0.0
  0
LINE
  5
4AE
330
1F
100
AcDbEntity
  8
ARETES TANGENTES
100
AcDbLine
 10
260.783720862307
 20
223.4205226928552
 30
0.0
 11
260.783720862307
 21
221.4313657348797
 31
0.0
  0
LINE
  5
4AF
330
1F
100
AcDbEntity
  8
ARETES TANGENTES
100
AcDbLine
 10
251.4307495180569
 20
231.6909442138675
 30
0.0
 11
251.4307495180569
 21
231.7909442138675
 31
0.0
  0
LINE
  5
4B0
330
1F
100
AcDbEntity
  8
ARETES TANGENTES
100
AcDbLine
 10
260.6149536516062
 20
223.5217400803181
 30
0.0
 11
260.8149536516063
 21
223.5217400803181
 31
0.0
  0
LINE
  5
4B1
330
1F
100
AcDbEntity
  8
ARETES TANGENTES
100
AcDbLine
 10
245.1349536516063
 20
221.3301483474168
 30
0.0
 11
244.9349536516063
 21
221.3301483474168
 31
0.0
  0
LINE
  5
4B2
330
1F
100
AcDbEntity
  8
ARETES TANGENTES
100
AcDbLine
 10
251.6306630689498
 20
231.6909442138675
 30
0.0
 11
251.6306630689498
 21
231.7909442138675
 31
0.0
  0
LINE
  5
4B3
330
1F
100
AcDbEntity
  8
ARETES TANGENTES
100
AcDbLine
 10
254.4203751726185
 20
231.7597114245681
 30
0.0
 11
256.409532130594
 21
231.7597114245681
 31
0.0
  0
LINE
  5
4B4
330
1F
100
AcDbEntity
  8
ARETES TANGENTES
100
AcDbLine
 10
245.1349536516063
 20
221.130234796524
 30
0.0
 11
244.9349536516063
 21
221.130234796524
 31
0.0
  0
LINE
  5
4B5
330
1F
100
AcDbEntity
  8
ARETES TANGENTES
100
AcDbLine
 10
258.6595113257026
 20
224.1909442138675
 30
0.0
 11
258.6595113257026
 21
226.1909442138675
 31
0.0
  0
LINE
  5
4B6
330
1F
100
AcDbEntity
  8
ARETES TANGENTES
100
AcDbLine
 10
253.8749536516063
 20
231.4909442138675
 30
0.0
 11
251.8749536516063
 21
231.4909442138675
 31
0.0
  0
LINE
  5
4B7
330
1F
100
AcDbEntity
  8
ARETES TANGENTES
100
AcDbLine
 10
245.2349536516062
 20
225.9659442138675
 30
0.0
 11
245.2349536516062
 21
223.9659442138675
 31
0.0
  0
LINE
  5
4B8
330
1F
100
AcDbEntity
  8
ARETES TANGENTES
100
AcDbLine
 10
247.5899622816593
 20
224.1909442138675
 30
0.0
 11
247.5899622816593
 21
226.1909442138675
 31
0.0
  0
LINE
  5
4B9
330
1F
100
AcDbEntity
  8
ARETES TANGENTES
100
AcDbLine
 10
260.5149536516063
 20
226.5059442138675
 30
0.0
 11
260.5149536516063
 21
228.5059442138675
 31
0.0
  0
LINE
  5
4BA
330
1F
100
AcDbEntity
  8
ARETES TANGENTES
100
AcDbLine
 10
245.1349536516063
 20
223.721653631211
 30
0.0
 11
244.9349536516063
 21
223.721653631211
 31
0.0
  0
LINE
  5
4BB
330
1F
100
AcDbEntity
  8
ARETES TANGENTES
100
AcDbLine
 10
245.1349536516063
 20
223.5217400803181
 30
0.0
 11
244.9349536516063
 21
223.5217400803181
 31
0.0
  0
LINE
  5
4BC
330
1F
100
AcDbEntity
  8
ARETES TANGENTES
100
AcDbLine
 10
258.1599450215533
 20
224.1909442138675
 30
0.0
 11
258.1599450215533
 21
226.1909442138675
 31
0.0
  0
LINE
  5
4BD
330
1F
100
AcDbEntity
  8
ARETES TANGENTES
100
AcDbLine
 10
260.5149536516063
 20
220.8859442138674
 30
0.0
 11
260.5149536516063
 21
218.1409442138674
 31
0.0
  0
LINE
  5
4BE
330
1F
100
AcDbEntity
  8
ARETES TANGENTES
100
AcDbLine
 10
260.6149536516062
 20
228.6017400803181
 30
0.0
 11
260.8149536516063
 21
228.6017400803181
 31
0.0
  0
LINE
  5
4BF
330
1F
100
AcDbEntity
  8
ARETES TANGENTES
100
AcDbLine
 10
245.1349536516063
 20
228.6017400803181
 30
0.0
 11
244.9349536516063
 21
228.6017400803181
 31
0.0
  0
LINE
  5
4C0
330
1F
100
AcDbEntity
  8
ARETES TANGENTES
100
AcDbLine
 10
250.7449536516063
 20
218.1409442138674
 30
0.0
 11
245.2349536516062
 21
218.1409442138674
 31
0.0
  0
LINE
  5
4C1
330
1F
100
AcDbEntity
  8
ARETES TANGENTES
100
AcDbLine
 10
248.7949536516063
 20
231.4909442138675
 30
0.0
 11
245.2349536516063
 21
231.4909442138675
 31
0.0
  0
LINE
  5
4C2
330
1F
100
AcDbEntity
  8
ARETES TANGENTES
100
AcDbLine
 10
245.2349536516063
 20
231.4909442138675
 30
0.0
 11
245.2349536516063
 21
229.0459442138674
 31
0.0
  0
LINE
  5
4C3
330
1F
100
AcDbEntity
  8
ARETES TANGENTES
100
AcDbLine
 10
256.5107495180569
 20
231.6909442138675
 30
0.0
 11
256.5107495180569
 21
231.7909442138675
 31
0.0
  0
LINE
  5
4C4
330
1F
100
AcDbEntity
  8
ARETES TANGENTES
100
AcDbLine
 10
260.5149536516063
 20
221.4259442138674
 30
0.0
 11
260.5149536516063
 21
223.4259442138674
 31
0.0
  0
LINE
  5
4C5
330
1F
100
AcDbEntity
  8
ARETES TANGENTES
100
AcDbLine
 10
244.9661864409056
 20
223.4205226928552
 30
0.0
 11
244.9661864409056
 21
221.4313657348797
 31
0.0
  0
LINE
  5
4C6
330
1F
100
AcDbEntity
  8
ARETES TANGENTES
100
AcDbLine
 10
249.2391577851556
 20
231.6909442138675
 30
0.0
 11
249.2391577851556
 21
231.7909442138675
 31
0.0
  0
LINE
  5
4C7
330
1F
100
AcDbEntity
  8
ARETES TANGENTES
100
AcDbLine
 10
260.6149536516062
 20
223.721653631211
 30
0.0
 11
260.8149536516063
 21
223.721653631211
 31
0.0
  0
LINE
  5
4C8
330
1F
100
AcDbEntity
  8
ARETES TANGENTES
100
AcDbLine
 10
245.2349536516062
 20
223.4259442138674
 30
0.0
 11
245.2349536516062
 21
221.4259442138674
 31
0.0
  0
LINE
  5
4C9
330
1F
100
AcDbEntity
  8
ARETES TANGENTES
100
AcDbLine
 10
254.1192442342627
 20
231.6909442138675
 30
0.0
 11
254.1192442342627
 21
231.7909442138675
 31
0.0
  0
LINE
  5
4CA
330
1F
100
AcDbEntity
  8
ARETES TANGENTES
100
AcDbLine
 10
260.6149536516062
 20
221.3301483474168
 30
0.0
 11
260.8149536516063
 21
221.3301483474168
 31
0.0
  0
LINE
  5
4CB
330
1F
100
AcDbEntity
  8
ARETES TANGENTES
100
AcDbLine
 10
255.0049536516063
 20
218.0410273916343
 30
0.0
 11
250.7449536516063
 21
218.0410273916343
 31
0.0
  0
LINE
  5
4CC
330
1F
100
AcDbEntity
  8
ARETES TANGENTES
100
AcDbLine
 10
247.0903959775099
 20
224.1909442138675
 30
0.0
 11
247.0903959775099
 21
226.1909442138675
 31
0.0
  0
LINE
  5
4CD
330
1F
100
AcDbEntity
  8
ARETES TANGENTES
100
AcDbLine
 10
256.4149536516063
 20
231.4909442138675
 30
0.0
 11
254.4149536516063
 21
231.4909442138674
 31
0.0
  0
LINE
  5
4CE
330
1F
100
AcDbEntity
  8
ARETES TANGENTES
100
AcDbLine
 10
260.6149536516062
 20
226.4101483474168
 30
0.0
 11
260.8149536516063
 21
226.4101483474168
 31
0.0
  0
LINE
  5
4CF
330
1F
100
AcDbEntity
  8
ARETES TANGENTES
100
AcDbLine
 10
258.9549536516063
 20
224.1909442138675
 30
0.0
 11
258.9549536516063
 21
226.1909442138675
 31
0.0
  0
LINE
  5
4D0
330
1F
100
AcDbEntity
  8
ARETES TANGENTES
100
AcDbLine
 10
260.5149536516063
 20
218.1409442138674
 30
0.0
 11
255.0049536516063
 21
218.1409442138674
 31
0.0
  0
LINE
  5
4D1
330
1F
100
AcDbEntity
  8
ARETES TANGENTES
100
AcDbLine
 10
260.6149536516062
 20
226.2102347965239
 30
0.0
 11
260.8149536516063
 21
226.2102347965239
 31
0.0
  0
LINE
  5
4D2
330
1F
100
AcDbEntity
  8
ARETES TANGENTES
100
AcDbLine
 10
260.6149536516062
 20
221.1302347965239
 30
0.0
 11
260.8149536516063
 21
221.1302347965239
 31
0.0
  0
LINE
  5
4D3
330
1F
100
AcDbEntity
  8
ARETES TANGENTES
100
AcDbLine
 10
244.9661864409056
 20
226.5113657348797
 30
0.0
 11
244.9661864409056
 21
228.5005226928552
 31
0.0
  0
LINE
  5
4D4
330
1F
100
AcDbEntity
  8
ARETES TANGENTES
100
AcDbLine
 10
245.1349536516063
 20
226.4101483474168
 30
0.0
 11
244.9349536516063
 21
226.4101483474168
 31
0.0
  0
LINE
  5
4D5
330
1F
100
AcDbEntity
  8
ARETES TANGENTES
100
AcDbLine
 10
260.783720862307
 20
226.5113657348797
 30
0.0
 11
260.783720862307
 21
228.5005226928552
 31
0.0
  0
LINE
  5
4D6
330
1F
100
AcDbEntity
  8
ARETES TANGENTES
100
AcDbLine
 10
260.6149536516062
 20
228.801653631211
 30
0.0
 11
260.8149536516063
 21
228.801653631211
 31
0.0
  0
LINE
  5
4D7
330
1F
100
AcDbEntity
  8
ARETES TANGENTES
100
AcDbLine
 10
245.2349536516063
 20
228.5059442138675
 30
0.0
 11
245.2349536516063
 21
226.5059442138675
 31
0.0
  0
LINE
  5
4D8
330
1F
100
AcDbEntity
  8
ARETES TANGENTES
100
AcDbLine
 10
251.3349536516063
 20
231.4909442138675
 30
0.0
 11
249.3349536516063
 21
231.4909442138675
 31
0.0
  0
LINE
  5
4D9
330
1F
100
AcDbEntity
  8
ARETES TANGENTES
100
AcDbLine
 10
312.9099537050042
 20
229.0909442138673
 30
0.0
 11
312.9099537050042
 21
228.0909442138673
 31
0.0
  0
LINE
  5
4DA
330
1F
100
AcDbEntity
  8
ARETES TANGENTES
100
AcDbLine
 10
312.5099537050042
 20
228.0909442138673
 30
0.0
 11
312.5099537050042
 21
229.0909442138673
 31
0.0
  0
LINE
  5
4DB
330
1F
100
AcDbEntity
  8
ARETES TANGENTES
100
AcDbLine
 10
300.5099537050042
 20
229.0909442138673
 30
0.0
 11
300.5099537050042
 21
228.0909442138673
 31
0.0
  0
LINE
  5
4DC
330
1F
100
AcDbEntity
  8
ARETES TANGENTES
100
AcDbLine
 10
300.1099537050042
 20
228.0909442138673
 30
0.0
 11
300.1099537050042
 21
229.0909442138673
 31
0.0
  0
LINE
  5
4DD
330
1F
100
AcDbEntity
  8
ARETES TANGENTES
100
AcDbLine
 10
269.8899536516062
 20
221.9367990254333
 30
0.0
 11
269.8899536516062
 21
222.3409442138661
 31
0.0
  0
LINE
  5
4DE
330
1F
100
AcDbEntity
  8
ARETES TANGENTES
100
AcDbLine
 10
269.8899536516062
 20
220.9909442138663
 30
0.0
 11
269.8899536516062
 21
221.6909442138663
 31
0.0
  0
LINE
  5
4DF
330
1F
100
AcDbEntity
  8
ARETES TANGENTES
100
AcDbLine
 10
269.8899536516062
 20
231.2909442138663
 30
0.0
 11
269.8899536516062
 21
231.9909442138663
 31
0.0
  0
LINE
  5
4E0
330
1F
100
AcDbEntity
  8
ARETES TANGENTES
100
AcDbLine
 10
269.8899536516062
 20
231.0450894022993
 30
0.0
 11
269.8899536516062
 21
230.6409442138664
 31
0.0
  0
LINE
  5
4E1
330
1F
100
AcDbEntity
  8
ARETES TANGENTES
100
AcDbLine
 10
285.4099536516059
 20
221.9367990254333
 30
0.0
 11
285.4099536516059
 21
222.3409442138661
 31
0.0
  0
LINE
  5
4E2
330
1F
100
AcDbEntity
  8
ARETES TANGENTES
100
AcDbLine
 10
285.4099536516059
 20
220.9909442138663
 30
0.0
 11
285.4099536516059
 21
221.6909442138663
 31
0.0
  0
LINE
  5
4E3
330
1F
100
AcDbEntity
  8
ARETES TANGENTES
100
AcDbLine
 10
285.4099536516059
 20
231.2909442138663
 30
0.0
 11
285.4099536516059
 21
231.9909442138663
 31
0.0
  0
LINE
  5
4E4
330
1F
100
AcDbEntity
  8
ARETES TANGENTES
100
AcDbLine
 10
285.4099536516059
 20
231.0450894022993
 30
0.0
 11
285.4099536516059
 21
230.6409442138664
 31
0.0
  0
ENDSEC
  0
SECTION
  2
OBJECTS
  0
DICTIONARY
  5
C
330
0
100
AcDbDictionary
281
     1
  3
ACAD_GROUP
350
D
  3
ACAD_LAYOUT
350
1A
  3
ACAD_MATERIAL
350
3B
  3
ACAD_MLEADERSTYLE
350
4E7
  3
ACAD_MLINESTYLE
350
17
  3
ACAD_PLOTSETTINGS
350
19
  3
ACAD_PLOTSTYLENAME
350
E
  3
ACAD_VISUALSTYLE
350
2A
  3
AcDbVariableDictionary
350
4E5
  0
DICTIONARY
  5
D
102
{ACAD_REACTORS
330
C
102
}
330
C
100
AcDbDictionary
281
     1
  0
DICTIONARY
  5
1A
102
{ACAD_REACTORS
330
C
102
}
330
C
100
AcDbDictionary
281
     1
  3
Layout1
350
1E
  3
Layout2
350
26
  3
Model
350
22
  0
DICTIONARY
  5
3B
102
{ACAD_REACTORS
330
C
102
}
330
C
100
AcDbDictionary
281
     1
  3
ByBlock
350
3D
  3
ByLayer
350
3C
  3
Global
350
3E
  0
DICTIONARY
  5
4E7
102
{ACAD_REACTORS
330
C
102
}
330
C
100
AcDbDictionary
281
     1
  0
DICTIONARY
  5
17
102
{ACAD_REACTORS
330
C
102
}
330
C
100
AcDbDictionary
281
     1
  3
Standard
350
18
  0
DICTIONARY
  5
19
102
{ACAD_REACTORS
330
C
102
}
330
C
100
AcDbDictionary
281
     1
  0
ACDBDICTIONARYWDFLT
  5
E
102
{ACAD_REACTORS
330
C
102
}
330
C
100
AcDbDictionary
281
     1
  3
Normal
350
F
100
AcDbDictionaryWithDefault
340
F
  0
DICTIONARY
  5
2A
102
{ACAD_REACTORS
330
C
102
}
330
C
100
AcDbDictionary
281
     1
  3
2dWireframe
350
2F
  3
3D Hidden
350
31
  3
3dWireframe
350
30
  3
Basic
350
32
  3
Brighten
350
36
  3
ColorChange
350
3A
  3
Conceptual
350
34
  3
Dim
350
35
  3
Facepattern
350
39
  3
Flat
350
2B
  3
FlatWithEdges
350
2C
  3
Gouraud
350
2D
  3
GouraudWithEdges
350
2E
  3
Linepattern
350
38
  3
Realistic
350
33
  3
Thicken
350
37
  0
DICTIONARY
  5
4E5
102
{ACAD_REACTORS
330
C
102
}
330
C
100
AcDbDictionary
281
     1
  3
DIMASSOC
350
4EA
  3
HIDETEXT
350
4EB
  3
PSOLHEIGHT
350
4E9
  3
PSOLWIDTH
350
4E8
  0
LAYOUT
  5
1E
102
{ACAD_REACTORS
330
1A
102
}
330
1A
100
AcDbPlotSettings
  1

  2
none_device
  4

  6

 40
0.0
 41
0.0
 42
0.0
 43
0.0
 44
0.0
 45
0.0
 46
0.0
 47
0.0
 48
0.0
 49
0.0
140
0.0
141
0.0
142
1.0
143
1.0
 70
   688
 72
     0
 73
     0
 74
     5
  7

 75
    16
147
1.0
148
0.0
149
0.0
100
AcDbLayout
  1
Layout1
 70
     1
 71
     1
 10
0.0
 20
0.0
 11
420.0
 21
297.0
 12
0.0
 22
0.0
 32
0.0
 14
1.000000000000000E+20
 24
1.000000000000000E+20
 34
1.000000000000000E+20
 15
-1.000000000000000E+20
 25
-1.000000000000000E+20
 35
-1.000000000000000E+20
146
0.0
 13
0.0
 23
0.0
 33
0.0
 16
1.0
 26
0.0
 36
0.0
 17
0.0
 27
1.0
 37
0.0
 76
     0
330
1B
  0
LAYOUT
  5
26
102
{ACAD_REACTORS
330
1A
102
}
330
1A
100
AcDbPlotSettings
  1

  2
none_device
  4

  6

 40
0.0
 41
0.0
 42
0.0
 43
0.0
 44
0.0
 45
0.0
 46
0.0
 47
0.0
 48
0.0
 49
0.0
140
0.0
141
0.0
142
1.0
143
1.0
 70
   688
 72
     0
 73
     0
 74
     5
  7

 75
    16
147
1.0
148
0.0
149
0.0
100
AcDbLayout
  1
Layout2
 70
     1
 71
     2
 10
0.0
 20
0.0
 11
0.0
 21
0.0
 12
0.0
 22
0.0
 32
0.0
 14
0.0
 24
0.0
 34
0.0
 15
0.0
 25
0.0
 35
0.0
146
0.0
 13
0.0
 23
0.0
 33
0.0
 16
1.0
 26
0.0
 36
0.0
 17
0.0
 27
1.0
 37
0.0
 76
     0
330
23
  0
LAYOUT
  5
22
102
{ACAD_REACTORS
330
1A
102
}
330
1A
100
AcDbPlotSettings
  1

  2
none_device
  4

  6

 40
0.0
 41
0.0
 42
0.0
 43
0.0
 44
0.0
 45
0.0
 46
0.0
 47
0.0
 48
0.0
 49
0.0
140
0.0
141
0.0
142
1.0
143
1.0
 70
  1712
 72
     0
 73
     0
 74
     0
  7

 75
     0
147
1.0
148
0.0
149
0.0
100
AcDbLayout
  1
Model
 70
     1
 71
     0
 10
0.0
 20
0.0
 11
420.0
 21
297.0
 12
0.0
 22
0.0
 32
0.0
 14
1.000000000000000E+20
 24
1.000000000000000E+20
 34
1.000000000000000E+20
 15
-1.000000000000000E+20
 25
-1.000000000000000E+20
 35
-1.000000000000000E+20
146
0.0
 13
0.0
 23
0.0
 33
0.0
 16
1.0
 26
0.0
 36
0.0
 17
0.0
 27
1.0
 37
0.0
 76
     0
330
1F
331
29
  0
MATERIAL
  5
3D
102
{ACAD_REACTORS
330
3B
102
}
102
{ACAD_XDICTIONARY
360
50E
102
}
330
3B
100
AcDbMaterial
  1
ByBlock
  0
MATERIAL
  5
3C
102
{ACAD_REACTORS
330
3B
102
}
102
{ACAD_XDICTIONARY
360
50C
102
}
330
3B
100
AcDbMaterial
  1
ByLayer
  0
MATERIAL
  5
3E
102
{ACAD_REACTORS
330
3B
102
}
102
{ACAD_XDICTIONARY
360
510
102
}
330
3B
100
AcDbMaterial
  1
Global
  0
MLINESTYLE
  5
18
102
{ACAD_REACTORS
330
17
102
}
330
17
100
AcDbMlineStyle
  2
Standard
 70
     0
  3

 62
   256
 51
90.0
 52
90.0
 71
     2
 49
0.5
 62
   256
  6
BYLAYER
 49
-0.5
 62
   256
  6
BYLAYER
  0
ACDBPLACEHOLDER
  5
F
102
{ACAD_REACTORS
330
E
102
}
330
E
  0
VISUALSTYLE
  5
2F
102
{ACAD_REACTORS
330
2A
102
}
102
{ACAD_XDICTIONARY
360
4F4
102
}
330
2A
100
AcDbVisualStyle
  2
2dWireframe
 70
     4
 71
     0
 72
     2
 73
     0
 90
        0
 40
-0.6
 41
-30.0
 62
     5
 63
     7
 74
     1
 91
        4
 64
     7
 65
   257
 75
     1
175
     1
 42
1.0
 92
        0
 66
   257
 43
1.0
 76
     1
 77
     6
 78
     2
 67
     7
 79
     5
170
     0
171
     0
290
     0
174
     0
 93
        1
 44
0.0
173
     0
291
     0
 45
0.0
1001
ACAD
1000
AcDbSavedByObjectVersion
1070
     0
  0
VISUALSTYLE
  5
31
102
{ACAD_REACTORS
330
2A
102
}
102
{ACAD_XDICTIONARY
360
4F8
102
}
330
2A
100
AcDbVisualStyle
  2
3D Hidden
 70
     6
 71
     1
 72
     2
 73
     2
 90
        0
 40
-0.6
 41
-30.0
 62
     5
 63
     7
 74
     2
 91
        2
 64
     7
 65
   257
 75
     2
175
     1
 42
40.0
 92
        0
 66
   257
 43
1.0
 76
     1
 77
     6
 78
     2
 67
     7
 79
     3
170
     0
171
     0
290
     0
174
     0
 93
        1
 44
0.0
173
     0
291
     0
 45
0.0
1001
ACAD
1000
AcDbSavedByObjectVersion
1070
     0
  0
VISUALSTYLE
  5
30
102
{ACAD_REACTORS
330
2A
102
}
102
{ACAD_XDICTIONARY
360
4F6
102
}
330
2A
100
AcDbVisualStyle
  2
3dWireframe
 70
     5
 71
     0
 72
     2
 73
     0
 90
        0
 40
-0.6
 41
-30.0
 62
     5
 63
     7
 74
     1
 91
        4
 64
     7
 65
   257
 75
     1
175
     1
 42
1.0
 92
        0
 66
   257
 43
1.0
 76
     1
 77
     6
 78
     2
 67
     7
 79
     5
170
     0
171
     0
290
     0
174
     0
 93
        1
 44
0.0
173
     0
291
     0
 45
0.0
1001
ACAD
1000
AcDbSavedByObjectVersion
1070
     0
  0
VISUALSTYLE
  5
32
102
{ACAD_REACTORS
330
2A
102
}
102
{ACAD_XDICTIONARY
360
4FA
102
}
330
2A
100
AcDbVisualStyle
  2
Basic
 70
     7
 71
     1
 72
     0
 73
     1
 90
        0
 40
-0.6
 41
-30.0
 62
     5
 63
     7
 74
     0
 91
        4
 64
     7
 65
   257
 75
     1
175
     1
 42
1.0
 92
        8
 66
     7
 43
1.0
 76
     1
 77
     6
 78
     2
 67
     7
 79
     5
170
     0
171
     0
290
     0
174
     0
 93
        1
 44
0.0
173
     0
291
     1
 45
0.0
1001
ACAD
1000
AcDbSavedByObjectVersion
1070
     0
  0
VISUALSTYLE
  5
36
102
{ACAD_REACTORS
330
2A
102
}
102
{ACAD_XDICTIONARY
360
502
102
}
330
2A
100
AcDbVisualStyle
  2
Brighten
 70
    12
 71
     2
 72
     2
 73
     0
 90
        0
 40
-0.6
 41
-30.0
 62
     5
 63
     7
 74
     1
 91
        4
 64
     7
 65
   257
 75
     1
175
     1
 42
1.0
 92
        8
 66
     7
 43
1.0
 76
     1
 77
     6
 78
     2
 67
     7
 79
     5
170
     0
171
     0
290
     0
174
     0
 93
        1
 44
50.0
173
     0
291
     1
 45
0.0
1001
ACAD
1000
AcDbSavedByObjectVersion
1070
     0
  0
VISUALSTYLE
  5
3A
102
{ACAD_REACTORS
330
2A
102
}
102
{ACAD_XDICTIONARY
360
50A
102
}
330
2A
100
AcDbVisualStyle
  2
ColorChange
 70
    16
 71
     2
 72
     2
 73
     3
 90
        0
 40
-0.6
 41
-30.0
 62
     5
 63
     8
 74
     1
 91
        4
 64
     7
 65
   257
 75
     1
175
     1
 42
1.0
 92
        8
 66
     8
 43
1.0
 76
     1
 77
     6
 78
     2
 67
     7
 79
     5
170
     0
171
     0
290
     0
174
     0
 93
        1
 44
0.0
173
     0
291
     1
 45
0.0
1001
ACAD
1000
AcDbSavedByObjectVersion
1070
     0
  0
VISUALSTYLE
  5
34
102
{ACAD_REACTORS
330
2A
102
}
102
{ACAD_XDICTIONARY
360
4FE
102
}
330
2A
100
AcDbVisualStyle
  2
Conceptual
 70
     9
 71
     3
 72
     2
 73
     0
 90
        0
 40
-0.6
 41
-30.0
 62
     5
 63
     7
 74
     2
 91
        2
 64
     7
 65
   257
 75
     1
175
     1
 42
40.0
 92
        8
 66
     7
 43
1.0
 76
     1
 77
     6
 78
     2
 67
     7
 79
     3
170
     0
171
     0
290
     0
174
     0
 93
        1
 44
0.0
173
     0
291
     0
 45
0.0
1001
ACAD
1000
AcDbSavedByObjectVersion
1070
     0
  0
VISUALSTYLE
  5
35
102
{ACAD_REACTORS
330
2A
102
}
102
{ACAD_XDICTIONARY
360
500
102
}
330
2A
100
AcDbVisualStyle
  2
Dim
 70
    11
 71
     2
 72
     2
 73
     0
 90
        0
 40
-0.6
 41
-30.0
 62
     5
 63
     7
 74
     1
 91
        4
 64
     7
 65
   257
 75
     1
175
     1
 42
1.0
 92
        8
 66
     7
 43
1.0
 76
     1
 77
     6
 78
     2
 67
     7
 79
     5
170
     0
171
     0
290
     0
174
     0
 93
        1
 44
-50.0
173
     0
291
     1
 45
0.0
1001
ACAD
1000
AcDbSavedByObjectVersion
1070
     0
  0
VISUALSTYLE
  5
39
102
{ACAD_REACTORS
330
2A
102
}
102
{ACAD_XDICTIONARY
360
508
102
}
330
2A
100
AcDbVisualStyle
  2
Facepattern
 70
    15
 71
     2
 72
     2
 73
     0
 90
        0
 40
-0.6
 41
-30.0
 62
     5
 63
     7
 74
     1
 91
        4
 64
     7
 65
   257
 75
     1
175
     1
 42
1.0
 92
        8
 66
     7
 43
1.0
 76
     1
 77
     6
 78
     2
 67
     7
 79
     5
170
     0
171
     0
290
     0
174
     0
 93
        1
 44
0.0
173
     0
291
     1
 45
0.0
1001
ACAD
1000
AcDbSavedByObjectVersion
1070
     0
  0
VISUALSTYLE
  5
2B
102
{ACAD_REACTORS
330
2A
102
}
102
{ACAD_XDICTIONARY
360
4EC
102
}
330
2A
100
AcDbVisualStyle
  2
Flat
 70
     0
 71
     2
 72
     1
 73
     1
 90
        2
 40
-0.6
 41
30.0
 62
     5
 63
     7
 74
     0
 91
        4
 64
     7
 65
   257
 75
     1
175
     1
 42
1.0
 92
        8
 66
     7
 43
1.0
 76
     1
 77
     6
 78
     2
 67
     7
 79
     5
170
     0
171
     0
290
     0
174
     0
 93
       13
 44
0.0
173
     0
291
     1
 45
0.0
1001
ACAD
1000
AcDbSavedByObjectVersion
1070
     0
  0
VISUALSTYLE
  5
2C
102
{ACAD_REACTORS
330
2A
102
}
102
{ACAD_XDICTIONARY
360
4EE
102
}
330
2A
100
AcDbVisualStyle
  2
FlatWithEdges
 70
     1
 71
     2
 72
     1
 73
     1
 90
        2
 40
-0.6
 41
30.0
 62
     5
 63
     7
 74
     1
 91
        4
 64
     7
 65
   257
 75
     1
175
     1
 42
1.0
 92
        0
 66
   257
 43
1.0
 76
     1
 77
     6
 78
     2
 67
     7
 79
     5
170
     0
171
     0
290
     0
174
     0
 93
       13
 44
0.0
173
     0
291
     1
 45
0.0
1001
ACAD
1000
AcDbSavedByObjectVersion
1070
     0
  0
VISUALSTYLE
  5
2D
102
{ACAD_REACTORS
330
2A
102
}
102
{ACAD_XDICTIONARY
360
4F0
102
}
330
2A
100
AcDbVisualStyle
  2
Gouraud
 70
     2
 71
     2
 72
     2
 73
     1
 90
        2
 40
-0.6
 41
30.0
 62
     5
 63
     7
 74
     0
 91
        4
 64
     7
 65
   257
 75
     1
175
     1
 42
1.0
 92
        0
 66
     7
 43
1.0
 76
     1
 77
     6
 78
     2
 67
     7
 79
     5
170
     0
171
     0
290
     0
174
     0
 93
       13
 44
0.0
173
     0
291
     1
 45
0.0
1001
ACAD
1000
AcDbSavedByObjectVersion
1070
     0
  0
VISUALSTYLE
  5
2E
102
{ACAD_REACTORS
330
2A
102
}
102
{ACAD_XDICTIONARY
360
4F2
102
}
330
2A
100
AcDbVisualStyle
  2
GouraudWithEdges
 70
     3
 71
     2
 72
     2
 73
     1
 90
        2
 40
-0.6
 41
30.0
 62
     5
 63
     7
 74
     1
 91
        4
 64
     7
 65
   257
 75
     1
175
     1
 42
1.0
 92
        0
 66
   257
 43
1.0
 76
     1
 77
     6
 78
     2
 67
     7
 79
     5
170
     0
171
     0
290
     0
174
     0
 93
       13
 44
0.0
173
     0
291
     1
 45
0.0
1001
ACAD
1000
AcDbSavedByObjectVersion
1070
     0
  0
VISUALSTYLE
  5
38
102
{ACAD_REACTORS
330
2A
102
}
102
{ACAD_XDICTIONARY
360
506
102
}
330
2A
100
AcDbVisualStyle
  2
Linepattern
 70
    14
 71
     2
 72
     2
 73
     0
 90
        0
 40
-0.6
 41
-30.0
 62
     5
 63
     7
 74
     1
 91
        4
 64
     7
 65
   257
 75
     7
175
     7
 42
1.0
 92
        8
 66
     7
 43
1.0
 76
     1
 77
     6
 78
     2
 67
     7
 79
     5
170
     0
171
     0
290
     0
174
     0
 93
        1
 44
0.0
173
     0
291
     1
 45
0.0
1001
ACAD
1000
AcDbSavedByObjectVersion
1070
     0
  0
VISUALSTYLE
  5
33
102
{ACAD_REACTORS
330
2A
102
}
102
{ACAD_XDICTIONARY
360
4FC
102
}
330
2A
100
AcDbVisualStyle
  2
Realistic
 70
     8
 71
     2
 72
     2
 73
     0
 90
        0
 40
-0.6
 41
-30.0
 62
     5
 63
     7
 74
     1
 91
        0
 64
     7
 65
   257
 75
     1
175
     1
 42
1.0
 92
        8
 66
     8
 43
1.0
 76
     1
 77
     6
 78
     2
 67
     7
 79
     5
170
     0
171
     0
290
     0
174
     0
 93
       13
 44
0.0
173
     0
291
     0
 45
0.0
1001
ACAD
1000
AcDbSavedByObjectVersion
1070
     0
  0
VISUALSTYLE
  5
37
102
{ACAD_REACTORS
330
2A
102
}
102
{ACAD_XDICTIONARY
360
504
102
}
330
2A
100
AcDbVisualStyle
  2
Thicken
 70
    13
 71
     2
 72
     2
 73
     0
 90
        0
 40
-0.6
 41
-30.0
 62
     5
 63
     7
 74
     1
 91
        4
 64
     7
 65
   257
 75
     1
175
     1
 42
1.0
 92
       12
 66
     7
 43
1.0
 76
     1
 77
     6
 78
     2
 67
     7
 79
     5
170
     0
171
     0
290
     0
174
     0
 93
        1
 44
0.0
173
     0
291
     1
 45
0.0
1001
ACAD
1000
AcDbSavedByObjectVersion
1070
     0
  0
DICTIONARYVAR
  5
4EA
102
{ACAD_REACTORS
330
4E5
102
}
330
4E5
100
DictionaryVariables
280
     0
  1
2
  0
DICTIONARYVAR
  5
4EB
102
{ACAD_REACTORS
330
4E5
102
}
330
4E5
100
DictionaryVariables
280
     0
  1
1
  0
DICTIONARYVAR
  5
4E9
102
{ACAD_REACTORS
330
4E5
102
}
330
4E5
100
DictionaryVariables
280
     0
  1
80.000000
  0
DICTIONARYVAR
  5
4E8
102
{ACAD_REACTORS
330
4E5
102
}
330
4E5
100
DictionaryVariables
280
     0
  1
5.000000
  0
DICTIONARY
  5
50E
330
3D
100
AcDbDictionary
280
     1
281
     1
  3
ACAD_XREC_ROUNDTRIP
360
50F
  0
DICTIONARY
  5
50C
330
3C
100
AcDbDictionary
280
     1
281
     1
  3
ACAD_XREC_ROUNDTRIP
360
50D
  0
DICTIONARY
  5
510
330
3E
100
AcDbDictionary
280
     1
281
     1
  3
ACAD_XREC_ROUNDTRIP
360
511
  0
DICTIONARY
  5
4F4
330
2F
100
AcDbDictionary
280
     1
281
     1
  3
ACAD_XREC_ROUNDTRIP
360
4F5
  0
DICTIONARY
  5
4F8
330
31
100
AcDbDictionary
280
     1
281
     1
  3
ACAD_XREC_ROUNDTRIP
360
4F9
  0
DICTIONARY
  5
4F6
330
30
100
AcDbDictionary
280
     1
281
     1
  3
ACAD_XREC_ROUNDTRIP
360
4F7
  0
DICTIONARY
  5
4FA
330
32
100
AcDbDictionary
280
     1
281
     1
  3
ACAD_XREC_ROUNDTRIP
360
4FB
  0
DICTIONARY
  5
502
330
36
100
AcDbDictionary
280
     1
281
     1
  3
ACAD_XREC_ROUNDTRIP
360
503
  0
DICTIONARY
  5
50A
330
3A
100
AcDbDictionary
280
     1
281
     1
  3
ACAD_XREC_ROUNDTRIP
360
50B
  0
DICTIONARY
  5
4FE
330
34
100
AcDbDictionary
280
     1
281
     1
  3
ACAD_XREC_ROUNDTRIP
360
4FF
  0
DICTIONARY
  5
500
330
35
100
AcDbDictionary
280
     1
281
     1
  3
ACAD_XREC_ROUNDTRIP
360
501
  0
DICTIONARY
  5
508
330
39
100
AcDbDictionary
280
     1
281
     1
  3
ACAD_XREC_ROUNDTRIP
360
509
  0
DICTIONARY
  5
4EC
330
2B
100
AcDbDictionary
280
     1
281
     1
  3
ACAD_XREC_ROUNDTRIP
360
4ED
  0
DICTIONARY
  5
4EE
330
2C
100
AcDbDictionary
280
     1
281
     1
  3
ACAD_XREC_ROUNDTRIP
360
4EF
  0
DICTIONARY
  5
4F0
330
2D
100
AcDbDictionary
280
     1
281
     1
  3
ACAD_XREC_ROUNDTRIP
360
4F1
  0
DICTIONARY
  5
4F2
330
2E
100
AcDbDictionary
280
     1
281
     1
  3
ACAD_XREC_ROUNDTRIP
360
4F3
  0
DICTIONARY
  5
506
330
38
100
AcDbDictionary
280
     1
281
     1
  3
ACAD_XREC_ROUNDTRIP
360
507
  0
DICTIONARY
  5
4FC
330
33
100
AcDbDictionary
280
     1
281
     1
  3
ACAD_XREC_ROUNDTRIP
360
4FD
  0
DICTIONARY
  5
504
330
37
100
AcDbDictionary
280
     1
281
     1
  3
ACAD_XREC_ROUNDTRIP
360
505
  0
XRECORD
  5
50F
102
{ACAD_REACTORS
330
50E
102
}
330
50E
100
AcDbXrecord
280
     1
102
MATERIAL
148
0.0
149
0.0
149
0.0
 93
        0
 94
      127
282
     0
 72
     1
 77
     1
171
     1
175
     1
179
     1
273
     0
  0
XRECORD
  5
50D
102
{ACAD_REACTORS
330
50C
102
}
330
50C
100
AcDbXrecord
280
     1
102
MATERIAL
148
0.0
149
0.0
149
0.0
 93
        0
 94
      127
282
     0
 72
     1
 77
     1
171
     1
175
     1
179
     1
273
     0
  0
XRECORD
  5
511
102
{ACAD_REACTORS
330
510
102
}
330
510
100
AcDbXrecord
280
     1
102
MATERIAL
148
0.0
149
0.0
149
0.0
 93
        0
 94
      127
282
     0
 72
     1
 77
     1
171
     1
175
     1
179
     1
273
     0
  0
XRECORD
  5
4F5
102
{ACAD_REACTORS
330
4F4
102
}
330
4F4
100
AcDbXrecord
280
     1
102
RTVSPropertyOp0
 70
     1
102
RTVSPropertyOp1
 70
     1
102
RTVSPropertyOp2
 70
     1
102
RTVSPropertyOp3
 70
     1
102
RTVSPropertyOp4
 70
     1
102
RTVSPropertyOp5
 70
     1
102
RTVSPropertyOp6
 70
     1
102
RTVSPropertyOp7
 70
     1
102
RTVSPropertyOp8
 70
     1
102
RTVSPropertyOp9
 70
     1
102
RTVSPropertyOp10
 70
     1
102
RTVSPropertyOp11
 70
     1
102
RTVSPropertyOp12
 70
     1
102
RTVSPropertyOp13
 70
     1
102
RTVSPropertyOp14
 70
     1
102
RTVSPropertyOp15
 70
     1
102
RTVSPropertyOp16
 70
     1
102
RTVSPropertyOp17
 70
     1
102
RTVSPropertyOp18
 70
     1
102
RTVSPropertyOp19
 70
     1
102
RTVSPropertyOp20
 70
     1
102
RTVSPropertyOp21
 70
     1
102
RTVSPropertyOp22
 70
     1
102
RTVSPropertyOp23
 70
     1
102
RTVSPropertyOp24
 70
     1
102
RTVSPropertyOp25
 70
     1
102
RTVSPropertyOp26
 70
     1
102
RTVSPropertyOp27
 70
     1
  0
XRECORD
  5
4F9
102
{ACAD_REACTORS
330
4F8
102
}
330
4F8
100
AcDbXrecord
280
     1
102
RTVSPropertyOp0
 70
     1
102
RTVSPropertyOp1
 70
     1
102
RTVSPropertyOp2
 70
     1
102
RTVSPropertyOp3
 70
     1
102
RTVSPropertyOp4
 70
     1
102
RTVSPropertyOp5
 70
     1
102
RTVSPropertyOp6
 70
     1
102
RTVSPropertyOp7
 70
     1
102
RTVSPropertyOp8
 70
     1
102
RTVSPropertyOp9
 70
     1
102
RTVSPropertyOp10
 70
     1
102
RTVSPropertyOp11
 70
     1
102
RTVSPropertyOp12
 70
     1
102
RTVSPropertyOp13
 70
     1
102
RTVSPropertyOp14
 70
     1
102
RTVSPropertyOp15
 70
     1
102
RTVSPropertyOp16
 70
     1
102
RTVSPropertyOp17
 70
     1
102
RTVSPropertyOp18
 70
     1
102
RTVSPropertyOp19
 70
     1
102
RTVSPropertyOp20
 70
     1
102
RTVSPropertyOp21
 70
     1
102
RTVSPropertyOp22
 70
     1
102
RTVSPropertyOp23
 70
     1
102
RTVSPropertyOp24
 70
     1
102
RTVSPropertyOp25
 70
     1
102
RTVSPropertyOp26
 70
     1
102
RTVSPropertyOp27
 70
     1
  0
XRECORD
  5
4F7
102
{ACAD_REACTORS
330
4F6
102
}
330
4F6
100
AcDbXrecord
280
     1
102
RTVSPropertyOp0
 70
     1
102
RTVSPropertyOp1
 70
     1
102
RTVSPropertyOp2
 70
     1
102
RTVSPropertyOp3
 70
     1
102
RTVSPropertyOp4
 70
     1
102
RTVSPropertyOp5
 70
     1
102
RTVSPropertyOp6
 70
     1
102
RTVSPropertyOp7
 70
     1
102
RTVSPropertyOp8
 70
     1
102
RTVSPropertyOp9
 70
     1
102
RTVSPropertyOp10
 70
     1
102
RTVSPropertyOp11
 70
     1
102
RTVSPropertyOp12
 70
     1
102
RTVSPropertyOp13
 70
     1
102
RTVSPropertyOp14
 70
     1
102
RTVSPropertyOp15
 70
     1
102
RTVSPropertyOp16
 70
     1
102
RTVSPropertyOp17
 70
     1
102
RTVSPropertyOp18
 70
     1
102
RTVSPropertyOp19
 70
     1
102
RTVSPropertyOp20
 70
     1
102
RTVSPropertyOp21
 70
     1
102
RTVSPropertyOp22
 70
     1
102
RTVSPropertyOp23
 70
     1
102
RTVSPropertyOp24
 70
     1
102
RTVSPropertyOp25
 70
     1
102
RTVSPropertyOp26
 70
     1
102
RTVSPropertyOp27
 70
     1
  0
XRECORD
  5
4FB
102
{ACAD_REACTORS
330
4FA
102
}
330
4FA
100
AcDbXrecord
280
     1
102
RTVSPropertyOp0
 70
     1
102
RTVSPropertyOp1
 70
     1
102
RTVSPropertyOp2
 70
     1
102
RTVSPropertyOp3
 70
     1
102
RTVSPropertyOp4
 70
     1
102
RTVSPropertyOp5
 70
     1
102
RTVSPropertyOp6
 70
     1
102
RTVSPropertyOp7
 70
     1
102
RTVSPropertyOp8
 70
     1
102
RTVSPropertyOp9
 70
     1
102
RTVSPropertyOp10
 70
     1
102
RTVSPropertyOp11
 70
     1
102
RTVSPropertyOp12
 70
     1
102
RTVSPropertyOp13
 70
     1
102
RTVSPropertyOp14
 70
     1
102
RTVSPropertyOp15
 70
     1
102
RTVSPropertyOp16
 70
     1
102
RTVSPropertyOp17
 70
     1
102
RTVSPropertyOp18
 70
     1
102
RTVSPropertyOp19
 70
     1
102
RTVSPropertyOp20
 70
     1
102
RTVSPropertyOp21
 70
     1
102
RTVSPropertyOp22
 70
     1
102
RTVSPropertyOp23
 70
     1
102
RTVSPropertyOp24
 70
     1
102
RTVSPropertyOp25
 70
     1
102
RTVSPropertyOp26
 70
     1
102
RTVSPropertyOp27
 70
     1
  0
XRECORD
  5
503
102
{ACAD_REACTORS
330
502
102
}
330
502
100
AcDbXrecord
280
     1
102
RTVSPropertyOp0
 70
     1
102
RTVSPropertyOp1
 70
     1
102
RTVSPropertyOp2
 70
     1
102
RTVSPropertyOp3
 70
     1
102
RTVSPropertyOp4
 70
     1
102
RTVSPropertyOp5
 70
     1
102
RTVSPropertyOp6
 70
     1
102
RTVSPropertyOp7
 70
     1
102
RTVSPropertyOp8
 70
     1
102
RTVSPropertyOp9
 70
     1
102
RTVSPropertyOp10
 70
     1
102
RTVSPropertyOp11
 70
     1
102
RTVSPropertyOp12
 70
     1
102
RTVSPropertyOp13
 70
     1
102
RTVSPropertyOp14
 70
     1
102
RTVSPropertyOp15
 70
     1
102
RTVSPropertyOp16
 70
     1
102
RTVSPropertyOp17
 70
     1
102
RTVSPropertyOp18
 70
     1
102
RTVSPropertyOp19
 70
     1
102
RTVSPropertyOp20
 70
     1
102
RTVSPropertyOp21
 70
     1
102
RTVSPropertyOp22
 70
     1
102
RTVSPropertyOp23
 70
     1
102
RTVSPropertyOp24
 70
     1
102
RTVSPropertyOp25
 70
     1
102
RTVSPropertyOp26
 70
     1
102
RTVSPropertyOp27
 70
     1
  0
XRECORD
  5
50B
102
{ACAD_REACTORS
330
50A
102
}
330
50A
100
AcDbXrecord
280
     1
102
RTVSPropertyOp0
 70
     1
102
RTVSPropertyOp1
 70
     1
102
RTVSPropertyOp2
 70
     1
102
RTVSPropertyOp3
 70
     1
102
RTVSPropertyOp4
 70
     1
102
RTVSPropertyOp5
 70
     1
102
RTVSPropertyOp6
 70
     1
102
RTVSPropertyOp7
 70
     1
102
RTVSPropertyOp8
 70
     1
102
RTVSPropertyOp9
 70
     1
102
RTVSPropertyOp10
 70
     1
102
RTVSPropertyOp11
 70
     1
102
RTVSPropertyOp12
 70
     1
102
RTVSPropertyOp13
 70
     1
102
RTVSPropertyOp14
 70
     1
102
RTVSPropertyOp15
 70
     1
102
RTVSPropertyOp16
 70
     1
102
RTVSPropertyOp17
 70
     1
102
RTVSPropertyOp18
 70
     1
102
RTVSPropertyOp19
 70
     1
102
RTVSPropertyOp20
 70
     1
102
RTVSPropertyOp21
 70
     1
102
RTVSPropertyOp22
 70
     1
102
RTVSPropertyOp23
 70
     1
102
RTVSPropertyOp24
 70
     1
102
RTVSPropertyOp25
 70
     1
102
RTVSPropertyOp26
 70
     1
102
RTVSPropertyOp27
 70
     1
  0
XRECORD
  5
4FF
102
{ACAD_REACTORS
330
4FE
102
}
330
4FE
100
AcDbXrecord
280
     1
102
RTVSPropertyOp0
 70
     1
102
RTVSPropertyOp1
 70
     1
102
RTVSPropertyOp2
 70
     1
102
RTVSPropertyOp3
 70
     1
102
RTVSPropertyOp4
 70
     1
102
RTVSPropertyOp5
 70
     1
102
RTVSPropertyOp6
 70
     1
102
RTVSPropertyOp7
 70
     1
102
RTVSPropertyOp8
 70
     1
102
RTVSPropertyOp9
 70
     1
102
RTVSPropertyOp10
 70
     1
102
RTVSPropertyOp11
 70
     1
102
RTVSPropertyOp12
 70
     1
102
RTVSPropertyOp13
 70
     1
102
RTVSPropertyOp14
 70
     1
102
RTVSPropertyOp15
 70
     1
102
RTVSPropertyOp16
 70
     1
102
RTVSPropertyOp17
 70
     1
102
RTVSPropertyOp18
 70
     1
102
RTVSPropertyOp19
 70
     1
102
RTVSPropertyOp20
 70
     1
102
RTVSPropertyOp21
 70
     1
102
RTVSPropertyOp22
 70
     1
102
RTVSPropertyOp23
 70
     1
102
RTVSPropertyOp24
 70
     1
102
RTVSPropertyOp25
 70
     1
102
RTVSPropertyOp26
 70
     1
102
RTVSPropertyOp27
 70
     1
  0
XRECORD
  5
501
102
{ACAD_REACTORS
330
500
102
}
330
500
100
AcDbXrecord
280
     1
102
RTVSPropertyOp0
 70
     1
102
RTVSPropertyOp1
 70
     1
102
RTVSPropertyOp2
 70
     1
102
RTVSPropertyOp3
 70
     1
102
RTVSPropertyOp4
 70
     1
102
RTVSPropertyOp5
 70
     1
102
RTVSPropertyOp6
 70
     1
102
RTVSPropertyOp7
 70
     1
102
RTVSPropertyOp8
 70
     1
102
RTVSPropertyOp9
 70
     1
102
RTVSPropertyOp10
 70
     1
102
RTVSPropertyOp11
 70
     1
102
RTVSPropertyOp12
 70
     1
102
RTVSPropertyOp13
 70
     1
102
RTVSPropertyOp14
 70
     1
102
RTVSPropertyOp15
 70
     1
102
RTVSPropertyOp16
 70
     1
102
RTVSPropertyOp17
 70
     1
102
RTVSPropertyOp18
 70
     1
102
RTVSPropertyOp19
 70
     1
102
RTVSPropertyOp20
 70
     1
102
RTVSPropertyOp21
 70
     1
102
RTVSPropertyOp22
 70
     1
102
RTVSPropertyOp23
 70
     1
102
RTVSPropertyOp24
 70
     1
102
RTVSPropertyOp25
 70
     1
102
RTVSPropertyOp26
 70
     1
102
RTVSPropertyOp27
 70
     1
  0
XRECORD
  5
509
102
{ACAD_REACTORS
330
508
102
}
330
508
100
AcDbXrecord
280
     1
102
RTVSPropertyOp0
 70
     1
102
RTVSPropertyOp1
 70
     1
102
RTVSPropertyOp2
 70
     1
102
RTVSPropertyOp3
 70
     1
102
RTVSPropertyOp4
 70
     1
102
RTVSPropertyOp5
 70
     1
102
RTVSPropertyOp6
 70
     1
102
RTVSPropertyOp7
 70
     1
102
RTVSPropertyOp8
 70
     1
102
RTVSPropertyOp9
 70
     1
102
RTVSPropertyOp10
 70
     1
102
RTVSPropertyOp11
 70
     1
102
RTVSPropertyOp12
 70
     1
102
RTVSPropertyOp13
 70
     1
102
RTVSPropertyOp14
 70
     1
102
RTVSPropertyOp15
 70
     1
102
RTVSPropertyOp16
 70
     1
102
RTVSPropertyOp17
 70
     1
102
RTVSPropertyOp18
 70
     1
102
RTVSPropertyOp19
 70
     1
102
RTVSPropertyOp20
 70
     1
102
RTVSPropertyOp21
 70
     1
102
RTVSPropertyOp22
 70
     1
102
RTVSPropertyOp23
 70
     1
102
RTVSPropertyOp24
 70
     1
102
RTVSPropertyOp25
 70
     1
102
RTVSPropertyOp26
 70
     1
102
RTVSPropertyOp27
 70
     1
  0
XRECORD
  5
4ED
102
{ACAD_REACTORS
330
4EC
102
}
330
4EC
100
AcDbXrecord
280
     1
102
RTVSPropertyOp0
 70
     1
102
RTVSPropertyOp1
 70
     1
102
RTVSPropertyOp2
 70
     1
102
RTVSPropertyOp3
 70
     1
102
RTVSPropertyOp4
 70
     1
102
RTVSPropertyOp5
 70
     1
102
RTVSPropertyOp6
 70
     1
102
RTVSPropertyOp7
 70
     1
102
RTVSPropertyOp8
 70
     1
102
RTVSPropertyOp9
 70
     1
102
RTVSPropertyOp10
 70
     1
102
RTVSPropertyOp11
 70
     1
102
RTVSPropertyOp12
 70
     1
102
RTVSPropertyOp13
 70
     1
102
RTVSPropertyOp14
 70
     1
102
RTVSPropertyOp15
 70
     1
102
RTVSPropertyOp16
 70
     1
102
RTVSPropertyOp17
 70
     1
102
RTVSPropertyOp18
 70
     1
102
RTVSPropertyOp19
 70
     1
102
RTVSPropertyOp20
 70
     1
102
RTVSPropertyOp21
 70
     1
102
RTVSPropertyOp22
 70
     1
102
RTVSPropertyOp23
 70
     1
102
RTVSPropertyOp24
 70
     1
102
RTVSPropertyOp25
 70
     1
102
RTVSPropertyOp26
 70
     1
102
RTVSPropertyOp27
 70
     1
  0
XRECORD
  5
4EF
102
{ACAD_REACTORS
330
4EE
102
}
330
4EE
100
AcDbXrecord
280
     1
102
RTVSPropertyOp0
 70
     1
102
RTVSPropertyOp1
 70
     1
102
RTVSPropertyOp2
 70
     1
102
RTVSPropertyOp3
 70
     1
102
RTVSPropertyOp4
 70
     1
102
RTVSPropertyOp5
 70
     1
102
RTVSPropertyOp6
 70
     1
102
RTVSPropertyOp7
 70
     1
102
RTVSPropertyOp8
 70
     1
102
RTVSPropertyOp9
 70
     1
102
RTVSPropertyOp10
 70
     1
102
RTVSPropertyOp11
 70
     1
102
RTVSPropertyOp12
 70
     1
102
RTVSPropertyOp13
 70
     1
102
RTVSPropertyOp14
 70
     1
102
RTVSPropertyOp15
 70
     1
102
RTVSPropertyOp16
 70
     1
102
RTVSPropertyOp17
 70
     1
102
RTVSPropertyOp18
 70
     1
102
RTVSPropertyOp19
 70
     1
102
RTVSPropertyOp20
 70
     1
102
RTVSPropertyOp21
 70
     1
102
RTVSPropertyOp22
 70
     1
102
RTVSPropertyOp23
 70
     1
102
RTVSPropertyOp24
 70
     1
102
RTVSPropertyOp25
 70
     1
102
RTVSPropertyOp26
 70
     1
102
RTVSPropertyOp27
 70
     1
  0
XRECORD
  5
4F1
102
{ACAD_REACTORS
330
4F0
102
}
330
4F0
100
AcDbXrecord
280
     1
102
RTVSPropertyOp0
 70
     1
102
RTVSPropertyOp1
 70
     1
102
RTVSPropertyOp2
 70
     1
102
RTVSPropertyOp3
 70
     1
102
RTVSPropertyOp4
 70
     1
102
RTVSPropertyOp5
 70
     1
102
RTVSPropertyOp6
 70
     1
102
RTVSPropertyOp7
 70
     1
102
RTVSPropertyOp8
 70
     1
102
RTVSPropertyOp9
 70
     1
102
RTVSPropertyOp10
 70
     1
102
RTVSPropertyOp11
 70
     1
102
RTVSPropertyOp12
 70
     1
102
RTVSPropertyOp13
 70
     1
102
RTVSPropertyOp14
 70
     1
102
RTVSPropertyOp15
 70
     1
102
RTVSPropertyOp16
 70
     1
102
RTVSPropertyOp17
 70
     1
102
RTVSPropertyOp18
 70
     1
102
RTVSPropertyOp19
 70
     1
102
RTVSPropertyOp20
 70
     1
102
RTVSPropertyOp21
 70
     1
102
RTVSPropertyOp22
 70
     1
102
RTVSPropertyOp23
 70
     1
102
RTVSPropertyOp24
 70
     1
102
RTVSPropertyOp25
 70
     1
102
RTVSPropertyOp26
 70
     1
102
RTVSPropertyOp27
 70
     1
  0
XRECORD
  5
4F3
102
{ACAD_REACTORS
330
4F2
102
}
330
4F2
100
AcDbXrecord
280
     1
102
RTVSPropertyOp0
 70
     1
102
RTVSPropertyOp1
 70
     1
102
RTVSPropertyOp2
 70
     1
102
RTVSPropertyOp3
 70
     1
102
RTVSPropertyOp4
 70
     1
102
RTVSPropertyOp5
 70
     1
102
RTVSPropertyOp6
 70
     1
102
RTVSPropertyOp7
 70
     1
102
RTVSPropertyOp8
 70
     1
102
RTVSPropertyOp9
 70
     1
102
RTVSPropertyOp10
 70
     1
102
RTVSPropertyOp11
 70
     1
102
RTVSPropertyOp12
 70
     1
102
RTVSPropertyOp13
 70
     1
102
RTVSPropertyOp14
 70
     1
102
RTVSPropertyOp15
 70
     1
102
RTVSPropertyOp16
 70
     1
102
RTVSPropertyOp17
 70
     1
102
RTVSPropertyOp18
 70
     1
102
RTVSPropertyOp19
 70
     1
102
RTVSPropertyOp20
 70
     1
102
RTVSPropertyOp21
 70
     1
102
RTVSPropertyOp22
 70
     1
102
RTVSPropertyOp23
 70
     1
102
RTVSPropertyOp24
 70
     1
102
RTVSPropertyOp25
 70
     1
102
RTVSPropertyOp26
 70
     1
102
RTVSPropertyOp27
 70
     1
  0
XRECORD
  5
507
102
{ACAD_REACTORS
330
506
102
}
330
506
100
AcDbXrecord
280
     1
102
RTVSPropertyOp0
 70
     1
102
RTVSPropertyOp1
 70
     1
102
RTVSPropertyOp2
 70
     1
102
RTVSPropertyOp3
 70
     1
102
RTVSPropertyOp4
 70
     1
102
RTVSPropertyOp5
 70
     1
102
RTVSPropertyOp6
 70
     1
102
RTVSPropertyOp7
 70
     1
102
RTVSPropertyOp8
 70
     1
102
RTVSPropertyOp9
 70
     1
102
RTVSPropertyOp10
 70
     1
102
RTVSPropertyOp11
 70
     1
102
RTVSPropertyOp12
 70
     1
102
RTVSPropertyOp13
 70
     1
102
RTVSPropertyOp14
 70
     1
102
RTVSPropertyOp15
 70
     1
102
RTVSPropertyOp16
 70
     1
102
RTVSPropertyOp17
 70
     1
102
RTVSPropertyOp18
 70
     1
102
RTVSPropertyOp19
 70
     1
102
RTVSPropertyOp20
 70
     1
102
RTVSPropertyOp21
 70
     1
102
RTVSPropertyOp22
 70
     1
102
RTVSPropertyOp23
 70
     1
102
RTVSPropertyOp24
 70
     1
102
RTVSPropertyOp25
 70
     1
102
RTVSPropertyOp26
 70
     1
102
RTVSPropertyOp27
 70
     1
  0
XRECORD
  5
4FD
102
{ACAD_REACTORS
330
4FC
102
}
330
4FC
100
AcDbXrecord
280
     1
102
RTVSPropertyOp0
 70
     1
102
RTVSPropertyOp1
 70
     1
102
RTVSPropertyOp2
 70
     1
102
RTVSPropertyOp3
 70
     1
102
RTVSPropertyOp4
 70
     1
102
RTVSPropertyOp5
 70
     1
102
RTVSPropertyOp6
 70
     1
102
RTVSPropertyOp7
 70
     1
102
RTVSPropertyOp8
 70
     1
102
RTVSPropertyOp9
 70
     1
102
RTVSPropertyOp10
 70
     1
102
RTVSPropertyOp11
 70
     1
102
RTVSPropertyOp12
 70
     1
102
RTVSPropertyOp13
 70
     1
102
RTVSPropertyOp14
 70
     1
102
RTVSPropertyOp15
 70
     1
102
RTVSPropertyOp16
 70
     1
102
RTVSPropertyOp17
 70
     1
102
RTVSPropertyOp18
 70
     1
102
RTVSPropertyOp19
 70
     1
102
RTVSPropertyOp20
 70
     1
102
RTVSPropertyOp21
 70
     1
102
RTVSPropertyOp22
 70
     1
102
RTVSPropertyOp23
 70
     1
102
RTVSPropertyOp24
 70
     1
102
RTVSPropertyOp25
 70
     1
102
RTVSPropertyOp26
 70
     1
102
RTVSPropertyOp27
 70
     1
  0
XRECORD
  5
505
102
{ACAD_REACTORS
330
504
102
}
330
504
100
AcDbXrecord
280
     1
102
RTVSPropertyOp0
 70
     1
102
RTVSPropertyOp1
 70
     1
102
RTVSPropertyOp2
 70
     1
102
RTVSPropertyOp3
 70
     1
102
RTVSPropertyOp4
 70
     1
102
RTVSPropertyOp5
 70
     1
102
RTVSPropertyOp6
 70
     1
102
RTVSPropertyOp7
 70
     1
102
RTVSPropertyOp8
 70
     1
102
RTVSPropertyOp9
 70
     1
102
RTVSPropertyOp10
 70
     1
102
RTVSPropertyOp11
 70
     1
102
RTVSPropertyOp12
 70
     1
102
RTVSPropertyOp13
 70
     1
102
RTVSPropertyOp14
 70
     1
102
RTVSPropertyOp15
 70
     1
102
RTVSPropertyOp16
 70
     1
102
RTVSPropertyOp17
 70
     1
102
RTVSPropertyOp18
 70
     1
102
RTVSPropertyOp19
 70
     1
102
RTVSPropertyOp20
 70
     1
102
RTVSPropertyOp21
 70
     1
102
RTVSPropertyOp22
 70
     1
102
RTVSPropertyOp23
 70
     1
102
RTVSPropertyOp24
 70
     1
102
RTVSPropertyOp25
 70
     1
102
RTVSPropertyOp26
 70
     1
102
RTVSPropertyOp27
 70
     1
  0
ENDSEC
  0
EOF
