  0
SECTION
  2
HEADER
  9
$ACADVER
  1
AC1015
  9
$ACADMAINTVER
 70
     6
  9
$DWGCODEPAGE
  3
ANSI_1252
  9
$INSBASE
 10
0.0
 20
0.0
 30
0.0
  9
$EXTMIN
 10
1.000000000000000E+20
 20
1.000000000000000E+20
 30
1.000000000000000E+20
  9
$EXTMAX
 10
-1.000000000000000E+20
 20
-1.000000000000000E+20
 30
-1.000000000000000E+20
  9
$LIMMIN
 10
0.0
 20
0.0
  9
$LIMMAX
 10
420.0
 20
297.0
  9
$ORTHOMODE
 70
     0
  9
$REGENMODE
 70
     1
  9
$FILLMODE
 70
     1
  9
$QTEXTMODE
 70
     0
  9
$MIRRTEXT
 70
     1
  9
$LTSCALE
 40
1.0
  9
$ATTMODE
 70
     1
  9
$TEXTSIZE
 40
2.5
  9
$TRACEWID
 40
1.0
  9
$TEXTSTYLE
  7
Standard
  9
$CLAYER
  8
0
  9
$CELTYPE
  6
ByLayer
  9
$CECOLOR
 62
   256
  9
$CELTSCALE
 40
1.0
  9
$DISPSILH
 70
     0
  9
$DIMSCALE
 40
1.0
  9
$DIMASZ
 40
3.0
  9
$DIMEXO
 40
0.625
  9
$DIMDLI
 40
3.75
  9
$DIMRND
 40
0.0
  9
$DIMDLE
 40
0.0
  9
$DIMEXE
 40
1.25
  9
$DIMTP
 40
0.0
  9
$DIMTM
 40
0.0
  9
$DIMTXT
 40
1.336918010447422
  9
$DIMCEN
 40
2.5
  9
$DIMTSZ
 40
0.0
  9
$DIMTOL
 70
     0
  9
$DIMLIM
 70
     0
  9
$DIMTIH
 70
     0
  9
$DIMTOH
 70
     0
  9
$DIMSE1
 70
     0
  9
$DIMSE2
 70
     0
  9
$DIMTAD
 70
     1
  9
$DIMZIN
 70
     8
  9
$DIMBLK
  1

  9
$DIMASO
 70
     1
  9
$DIMSHO
 70
     1
  9
$DIMPOST
  1

  9
$DIMAPOST
  1

  9
$DIMALT
 70
     0
  9
$DIMALTD
 70
     3
  9
$DIMALTF
 40
0.03937007874016
  9
$DIMLFAC
 40
1.0
  9
$DIMTOFL
 70
     1
  9
$DIMTVP
 40
0.0
  9
$DIMTIX
 70
     0
  9
$DIMSOXD
 70
     0
  9
$DIMSAH
 70
     0
  9
$DIMBLK1
  1

  9
$DIMBLK2
  1

  9
$DIMSTYLE
  2
ISO-25
  9
$DIMCLRD
 70
     0
  9
$DIMCLRE
 70
     0
  9
$DIMCLRT
 70
     0
  9
$DIMTFAC
 40
1.0
  9
$DIMGAP
 40
0.625
  9
$DIMJUST
 70
     0
  9
$DIMSD1
 70
     0
  9
$DIMSD2
 70
     0
  9
$DIMTOLJ
 70
     0
  9
$DIMTZIN
 70
     8
  9
$DIMALTZ
 70
     0
  9
$DIMALTTZ
 70
     0
  9
$DIMUPT
 70
     0
  9
$DIMDEC
 70
     2
  9
$DIMTDEC
 70
     2
  9
$DIMALTU
 70
     2
  9
$DIMALTTD
 70
     3
  9
$DIMTXSTY
  7
Standard
  9
$DIMAUNIT
 70
     0
  9
$DIMADEC
 70
     0
  9
$DIMALTRND
 40
0.0
  9
$DIMAZIN
 70
     0
  9
$DIMDSEP
 70
    44
  9
$DIMATFIT
 70
     3
  9
$DIMFRAC
 70
     0
  9
$DIMLDRBLK
  1

  9
$DIMLUNIT
 70
     2
  9
$DIMLWD
 70
    -2
  9
$DIMLWE
 70
    -2
  9
$DIMTMOVE
 70
     0
  9
$LUNITS
 70
     2
  9
$LUPREC
 70
     4
  9
$SKETCHINC
 40
1.0
  9
$FILLETRAD
 40
10.0
  9
$AUNITS
 70
     0
  9
$AUPREC
 70
     0
  9
$MENU
  1
.
  9
$ELEVATION
 40
0.0
  9
$PELEVATION
 40
0.0
  9
$THICKNESS
 40
0.0
  9
$LIMCHECK
 70
     0
  9
$CHAMFERA
 40
10.0
  9
$CHAMFERB
 40
10.0
  9
$CHAMFERC
 40
20.0
  9
$CHAMFERD
 40
0.0
  9
$SKPOLY
 70
     0
  9
$TDCREATE
 40
2456552.7373861
  9
$TDUCREATE
 40
2456552.654052766
  9
$TDUPDATE
 40
2456552.737386181
  9
$TDUUPDATE
 40
2456552.654052847
  9
$TDINDWG
 40
0.0000000116
  9
$TDUSRTIMER
 40
0.0000000116
  9
$USRTIMER
 70
     1
  9
$ANGBASE
 50
0.0
  9
$ANGDIR
 70
     0
  9
$PDMODE
 70
     0
  9
$PDSIZE
 40
0.0
  9
$PLINEWID
 40
0.0
  9
$SPLFRAME
 70
     0
  9
$SPLINETYPE
 70
     6
  9
$SPLINESEGS
 70
     8
  9
$HANDSEED
  5
F6
  9
$SURFTAB1
 70
     6
  9
$SURFTAB2
 70
     6
  9
$SURFTYPE
 70
     6
  9
$SURFU
 70
     6
  9
$SURFV
 70
     6
  9
$UCSBASE
  2

  9
$UCSNAME
  2

  9
$UCSORG
 10
0.0
 20
0.0
 30
0.0
  9
$UCSXDIR
 10
1.0
 20
0.0
 30
0.0
  9
$UCSYDIR
 10
0.0
 20
1.0
 30
0.0
  9
$UCSORTHOREF
  2

  9
$UCSORTHOVIEW
 70
     0
  9
$UCSORGTOP
 10
0.0
 20
0.0
 30
0.0
  9
$UCSORGBOTTOM
 10
0.0
 20
0.0
 30
0.0
  9
$UCSORGLEFT
 10
0.0
 20
0.0
 30
0.0
  9
$UCSORGRIGHT
 10
0.0
 20
0.0
 30
0.0
  9
$UCSORGFRONT
 10
0.0
 20
0.0
 30
0.0
  9
$UCSORGBACK
 10
0.0
 20
0.0
 30
0.0
  9
$PUCSBASE
  2

  9
$PUCSNAME
  2

  9
$PUCSORG
 10
0.0
 20
0.0
 30
0.0
  9
$PUCSXDIR
 10
1.0
 20
0.0
 30
0.0
  9
$PUCSYDIR
 10
0.0
 20
1.0
 30
0.0
  9
$PUCSORTHOREF
  2

  9
$PUCSORTHOVIEW
 70
     0
  9
$PUCSORGTOP
 10
0.0
 20
0.0
 30
0.0
  9
$PUCSORGBOTTOM
 10
0.0
 20
0.0
 30
0.0
  9
$PUCSORGLEFT
 10
0.0
 20
0.0
 30
0.0
  9
$PUCSORGRIGHT
 10
0.0
 20
0.0
 30
0.0
  9
$PUCSORGFRONT
 10
0.0
 20
0.0
 30
0.0
  9
$PUCSORGBACK
 10
0.0
 20
0.0
 30
0.0
  9
$USERI1
 70
     0
  9
$USERI2
 70
     0
  9
$USERI3
 70
     0
  9
$USERI4
 70
     0
  9
$USERI5
 70
     0
  9
$USERR1
 40
0.0
  9
$USERR2
 40
0.0
  9
$USERR3
 40
0.0
  9
$USERR4
 40
0.0
  9
$USERR5
 40
0.0
  9
$WORLDVIEW
 70
     1
  9
$SHADEDGE
 70
     3
  9
$SHADEDIF
 70
    70
  9
$TILEMODE
 70
     1
  9
$MAXACTVP
 70
    64
  9
$PINSBASE
 10
0.0
 20
0.0
 30
0.0
  9
$PLIMCHECK
 70
     0
  9
$PEXTMIN
 10
1.000000000000000E+20
 20
1.000000000000000E+20
 30
1.000000000000000E+20
  9
$PEXTMAX
 10
-1.000000000000000E+20
 20
-1.000000000000000E+20
 30
-1.000000000000000E+20
  9
$PLIMMIN
 10
0.0
 20
0.0
  9
$PLIMMAX
 10
420.0
 20
297.0
  9
$UNITMODE
 70
     0
  9
$VISRETAIN
 70
     1
  9
$PLINEGEN
 70
     0
  9
$PSLTSCALE
 70
     1
  9
$TREEDEPTH
 70
  3020
  9
$CMLSTYLE
  2
Standard
  9
$CMLJUST
 70
     0
  9
$CMLSCALE
 40
20.0
  9
$PROXYGRAPHICS
 70
     1
  9
$MEASUREMENT
 70
     1
  9
$CELWEIGHT
370
    -1
  9
$ENDCAPS
280
     0
  9
$JOINSTYLE
280
     0
  9
$LWDISPLAY
290
     0
  9
$INSUNITS
 70
     4
  9
$HYPERLINKBASE
  1

  9
$STYLESHEET
  1

  9
$XEDIT
290
     1
  9
$CEPSNTYPE
380
     0
  9
$PSTYLEMODE
290
     1
  9
$FINGERPRINTGUID
  2
{4E75EBF8-5156-471D-88AF-BDFA0435FC9A}
  9
$VERSIONGUID
  2
{FAEB1C32-E019-11D5-929B-00C0DF256EC4}
  9
$EXTNAMES
290
     1
  9
$PSVPSCALE
 40
0.0
  9
$OLESTARTUP
290
     0
  0
ENDSEC
  0
SECTION
  2
CLASSES
  0
CLASS
  1
ACDBDICTIONARYWDFLT
  2
AcDbDictionaryWithDefault
  3
ObjectDBX Classes
 90
        0
280
     0
281
     0
  0
CLASS
  1
VISUALSTYLE
  2
AcDbVisualStyle
  3
ObjectDBX Classes
 90
     4095
280
     0
281
     0
  0
CLASS
  1
MATERIAL
  2
AcDbMaterial
  3
ObjectDBX Classes
 90
     1153
280
     0
281
     0
  0
CLASS
  1
DICTIONARYVAR
  2
AcDbDictionaryVar
  3
ObjectDBX Classes
 90
        0
280
     0
281
     0
  0
CLASS
  1
ACDBPLACEHOLDER
  2
AcDbPlaceHolder
  3
ObjectDBX Classes
 90
        0
280
     0
281
     0
  0
CLASS
  1
LAYOUT
  2
AcDbLayout
  3
ObjectDBX Classes
 90
        0
280
     0
281
     0
  0
ENDSEC
  0
SECTION
  2
TABLES
  0
TABLE
  2
VPORT
  5
8
330
0
100
AcDbSymbolTable
 70
     1
  0
VPORT
  5
29
330
8
100
AcDbSymbolTableRecord
100
AcDbViewportTableRecord
  2
*Active
 70
     0
 10
0.0
 20
0.0
 11
1.0
 21
1.0
 12
344.1869158878504
 22
148.5
 13
0.0
 23
0.0
 14
10.0
 24
10.0
 15
10.0
 25
10.0
 16
0.0
 26
0.0
 36
1.0
 17
0.0
 27
0.0
 37
0.0
 40
297.0
 41
1.972972972850329
 42
50.0
 43
0.0
 44
0.0
 50
0.0
 51
0.0
 71
     0
 72
   100
 73
     1
 74
     3
 75
     0
 76
     0
 77
     0
 78
     0
281
     0
 65
     1
110
0.0
120
0.0
130
0.0
111
1.0
121
0.0
131
0.0
112
0.0
122
1.0
132
0.0
 79
     0
146
0.0
  0
ENDTAB
  0
TABLE
  2
LTYPE
  5
5
330
0
100
AcDbSymbolTable
 70
     1
  0
LTYPE
  5
14
330
5
100
AcDbSymbolTableRecord
100
AcDbLinetypeTableRecord
  2
ByBlock
 70
     0
  3

 72
    65
 73
     0
 40
0.0
  0
LTYPE
  5
15
330
5
100
AcDbSymbolTableRecord
100
AcDbLinetypeTableRecord
  2
ByLayer
 70
     0
  3

 72
    65
 73
     0
 40
0.0
  0
LTYPE
  5
16
330
5
100
AcDbSymbolTableRecord
100
AcDbLinetypeTableRecord
  2
Continuous
 70
     0
  3
Solid line
 72
    65
 73
     0
 40
0.0
  0
ENDTAB
  0
TABLE
  2
LAYER
  5
2
330
0
100
AcDbSymbolTable
 70
     3
  0
LAYER
  5
10
330
2
100
AcDbSymbolTableRecord
100
AcDbLayerTableRecord
  2
0
 70
     0
 62
     7
  6
Continuous
370
    -3
390
F
  0
LAYER
  5
3F
330
2
100
AcDbSymbolTableRecord
100
AcDbLayerTableRecord
  2
APPARENT
 70
     0
 62
     7
  6
Continuous
370
     0
390
F
  0
LAYER
  5
B8
330
2
100
AcDbSymbolTableRecord
100
AcDbLayerTableRecord
  2
ARETES TANGENTES
 70
     0
 62
     7
  6
Continuous
370
     0
390
F
  0
ENDTAB
  0
TABLE
  2
STYLE
  5
3
330
0
100
AcDbSymbolTable
 70
     1
  0
STYLE
  5
11
330
3
100
AcDbSymbolTableRecord
100
AcDbTextStyleTableRecord
  2
Standard
 70
     0
 40
0.0
 41
1.0
 50
0.0
 71
     0
 42
2.5
  3
txt
  4

  0
ENDTAB
  0
TABLE
  2
VIEW
  5
6
330
0
100
AcDbSymbolTable
 70
     0
  0
ENDTAB
  0
TABLE
  2
UCS
  5
7
330
0
100
AcDbSymbolTable
 70
     0
  0
ENDTAB
  0
TABLE
  2
APPID
  5
9
330
0
100
AcDbSymbolTable
 70
     1
  0
APPID
  5
12
330
9
100
AcDbSymbolTableRecord
100
AcDbRegAppTableRecord
  2
ACAD
 70
     0
  0
ENDTAB
  0
TABLE
  2
DIMSTYLE
  5
A
330
0
100
AcDbSymbolTable
 70
     1
100
AcDbDimStyleTable
  0
DIMSTYLE
105
27
330
A
100
AcDbSymbolTableRecord
100
AcDbDimStyleTableRecord
  2
ISO-25
 70
     0
 41
2.5
 42
0.625
 43
3.75
 44
1.25
 73
     0
 74
     0
 77
     1
 78
     8
140
2.5
141
2.5
143
0.03937007874016
147
0.625
171
     3
172
     1
178
     0
271
     2
272
     2
274
     3
278
    44
283
     0
284
     8
340
11
  0
ENDTAB
  0
TABLE
  2
BLOCK_RECORD
  5
1
330
0
100
AcDbSymbolTable
 70
     1
  0
BLOCK_RECORD
  5
1F
330
1
100
AcDbSymbolTableRecord
100
AcDbBlockTableRecord
  2
*Model_Space
340
22
  0
BLOCK_RECORD
  5
1B
330
1
100
AcDbSymbolTableRecord
100
AcDbBlockTableRecord
  2
*Paper_Space
340
1E
  0
BLOCK_RECORD
  5
23
330
1
100
AcDbSymbolTableRecord
100
AcDbBlockTableRecord
  2
*Paper_Space0
340
26
  0
ENDTAB
  0
ENDSEC
  0
SECTION
  2
BLOCKS
  0
BLOCK
  5
20
330
1F
100
AcDbEntity
  8
0
100
AcDbBlockBegin
  2
*Model_Space
 70
     0
 10
0.0
 20
0.0
 30
0.0
  3
*Model_Space
  1

  0
ENDBLK
  5
21
330
1F
100
AcDbEntity
  8
0
100
AcDbBlockEnd
  0
BLOCK
  5
1C
330
1B
100
AcDbEntity
 67
     1
  8
0
100
AcDbBlockBegin
  2
*Paper_Space
 70
     0
 10
0.0
 20
0.0
 30
0.0
  3
*Paper_Space
  1

  0
ENDBLK
  5
1D
330
1B
100
AcDbEntity
 67
     1
  8
0
100
AcDbBlockEnd
  0
BLOCK
  5
24
330
23
100
AcDbEntity
  8
0
100
AcDbBlockBegin
  2
*Paper_Space0
 70
     0
 10
0.0
 20
0.0
 30
0.0
  3
*Paper_Space0
  1

  0
ENDBLK
  5
25
330
23
100
AcDbEntity
  8
0
100
AcDbBlockEnd
  0
ENDSEC
  0
SECTION
  2
ENTITIES
  0
LINE
  5
40
330
1F
100
AcDbEntity
  8
APPARENT
100
AcDbLine
 10
319.8956758808508
 20
232.476301879883
 30
0.0
 11
320.0574829101562
 21
232.476301879883
 31
0.0
  0
ARC
  5
41
330
1F
100
AcDbEntity
  8
APPARENT
100
AcDbCircle
 10
320.6074829101562
 20
233.026301879883
 30
0.0
 40
3.83853661593173
100
AcDbArc
 50
0.0
 51
180.0
  0
LINE
  5
42
330
1F
100
AcDbEntity
  8
APPARENT
100
AcDbLine
 10
321.1574829101563
 20
232.476301879883
 30
0.0
 11
321.1574829101563
 21
233.576301879883
 31
0.0
  0
LINE
  5
43
330
1F
100
AcDbEntity
  8
APPARENT
100
AcDbLine
 10
320.0574829101562
 20
233.7381089091884
 30
0.0
 11
320.0574829101562
 21
235.226301879883
 31
0.0
  0
LINE
  5
44
330
1F
100
AcDbEntity
  8
APPARENT
100
AcDbLine
 10
321.1574829101563
 20
230.826301879883
 30
0.0
 11
320.0574829101562
 21
230.826301879883
 31
0.0
  0
LINE
  5
45
330
1F
100
AcDbEntity
  8
APPARENT
100
AcDbLine
 10
322.1631178287666
 20
231.4706669612726
 30
0.0
 11
321.1574829101563
 21
232.3144948505775
 31
0.0
  0
LINE
  5
46
330
1F
100
AcDbEntity
  8
APPARENT
100
AcDbLine
 10
321.1574829101563
 20
232.476301879883
 30
0.0
 11
320.0574829101562
 21
232.476301879883
 31
0.0
  0
LINE
  5
47
330
1F
100
AcDbEntity
  8
APPARENT
100
AcDbLine
 10
322.8074829101562
 20
233.026301879883
 30
0.0
 11
322.8074829101562
 21
232.476301879883
 31
0.0
  0
LINE
  5
48
330
1F
100
AcDbEntity
  8
APPARENT
100
AcDbLine
 10
321.1574829101563
 20
233.7381089091884
 30
0.0
 11
322.1631178287666
 21
234.5819367984934
 31
0.0
  0
LINE
  5
49
330
1F
100
AcDbEntity
  8
APPARENT
100
AcDbLine
 10
321.3192899394617
 20
233.576301879883
 30
0.0
 11
322.8074829101562
 21
233.576301879883
 31
0.0
  0
LINE
  5
4A
330
1F
100
AcDbEntity
  8
APPARENT
100
AcDbLine
 10
319.8956758808508
 20
233.576301879883
 30
0.0
 11
319.0518479915459
 21
234.5819367984934
 31
0.0
  0
LINE
  5
4B
330
1F
100
AcDbEntity
  8
APPARENT
100
AcDbLine
 10
318.4074829101563
 20
232.476301879883
 30
0.0
 11
318.4074829101563
 21
233.026301879883
 31
0.0
  0
LINE
  5
4C
330
1F
100
AcDbEntity
  8
APPARENT
100
AcDbLine
 10
321.1574829101563
 20
232.476301879883
 30
0.0
 11
321.3192899394617
 21
232.476301879883
 31
0.0
  0
LINE
  5
4D
330
1F
100
AcDbEntity
  8
APPARENT
100
AcDbLine
 10
321.3192899394617
 20
233.576301879883
 30
0.0
 11
321.1574829101563
 21
233.576301879883
 31
0.0
  0
LINE
  5
4E
330
1F
100
AcDbEntity
  8
APPARENT
100
AcDbLine
 10
319.0518479915459
 20
231.4706669612726
 30
0.0
 11
319.8956758808508
 21
232.476301879883
 31
0.0
  0
LINE
  5
4F
330
1F
100
AcDbEntity
  8
APPARENT
100
AcDbLine
 10
322.8074829101562
 20
233.576301879883
 30
0.0
 11
322.8074829101562
 21
233.026301879883
 31
0.0
  0
LINE
  5
50
330
1F
100
AcDbEntity
  8
APPARENT
100
AcDbLine
 10
320.0574829101562
 20
233.576301879883
 30
0.0
 11
320.0574829101562
 21
232.476301879883
 31
0.0
  0
LINE
  5
51
330
1F
100
AcDbEntity
  8
APPARENT
100
AcDbLine
 10
320.0574829101562
 20
232.3144948505775
 30
0.0
 11
319.0518479915459
 21
231.4706669612726
 31
0.0
  0
LINE
  5
52
330
1F
100
AcDbEntity
  8
APPARENT
100
AcDbLine
 10
320.0574829101562
 20
233.7381089091884
 30
0.0
 11
320.0574829101562
 21
233.576301879883
 31
0.0
  0
ARC
  5
53
330
1F
100
AcDbEntity
  8
APPARENT
100
AcDbCircle
 10
320.6074829101562
 20
233.026301879883
 30
0.0
 40
3.838536615931673
100
AcDbArc
 50
180.0
 51
0.0
  0
LINE
  5
54
330
1F
100
AcDbEntity
  8
APPARENT
100
AcDbLine
 10
321.1574829101563
 20
235.226301879883
 30
0.0
 11
321.1574829101563
 21
233.7381089091884
 31
0.0
  0
LINE
  5
55
330
1F
100
AcDbEntity
  8
APPARENT
100
AcDbLine
 10
319.8956758808508
 20
232.476301879883
 30
0.0
 11
318.4074829101563
 21
232.476301879883
 31
0.0
  0
LINE
  5
56
330
1F
100
AcDbEntity
  8
APPARENT
100
AcDbLine
 10
318.4074829101563
 20
233.026301879883
 30
0.0
 11
318.4074829101563
 21
233.576301879883
 31
0.0
  0
LINE
  5
57
330
1F
100
AcDbEntity
  8
APPARENT
100
AcDbLine
 10
321.1574829101563
 20
233.576301879883
 30
0.0
 11
321.1574829101563
 21
233.7381089091884
 31
0.0
  0
LINE
  5
58
330
1F
100
AcDbEntity
  8
APPARENT
100
AcDbLine
 10
321.1574829101563
 20
232.3144948505775
 30
0.0
 11
321.1574829101563
 21
230.826301879883
 31
0.0
  0
LINE
  5
59
330
1F
100
AcDbEntity
  8
APPARENT
100
AcDbLine
 10
318.4074829101563
 20
233.576301879883
 30
0.0
 11
319.8956758808508
 21
233.576301879883
 31
0.0
  0
LINE
  5
5A
330
1F
100
AcDbEntity
  8
APPARENT
100
AcDbLine
 10
320.0574829101562
 20
235.226301879883
 30
0.0
 11
321.1574829101563
 21
235.226301879883
 31
0.0
  0
LINE
  5
5B
330
1F
100
AcDbEntity
  8
APPARENT
100
AcDbLine
 10
322.1631178287666
 20
234.5819367984934
 30
0.0
 11
321.3192899394617
 21
233.576301879883
 31
0.0
  0
LINE
  5
5C
330
1F
100
AcDbEntity
  8
APPARENT
100
AcDbLine
 10
319.0518479915459
 20
234.5819367984934
 30
0.0
 11
320.0574829101562
 21
233.7381089091884
 31
0.0
  0
LINE
  5
5D
330
1F
100
AcDbEntity
  8
APPARENT
100
AcDbLine
 10
320.0574829101562
 20
232.476301879883
 30
0.0
 11
320.0574829101562
 21
232.3144948505775
 31
0.0
  0
LINE
  5
5E
330
1F
100
AcDbEntity
  8
APPARENT
100
AcDbLine
 10
321.1574829101563
 20
233.576301879883
 30
0.0
 11
320.0574829101562
 21
233.576301879883
 31
0.0
  0
LINE
  5
5F
330
1F
100
AcDbEntity
  8
APPARENT
100
AcDbLine
 10
321.3192899394617
 20
232.476301879883
 30
0.0
 11
322.1631178287666
 21
231.4706669612726
 31
0.0
  0
LINE
  5
60
330
1F
100
AcDbEntity
  8
APPARENT
100
AcDbLine
 10
320.0574829101562
 20
233.576301879883
 30
0.0
 11
319.8956758808508
 21
233.576301879883
 31
0.0
  0
LINE
  5
61
330
1F
100
AcDbEntity
  8
APPARENT
100
AcDbLine
 10
322.8074829101562
 20
232.476301879883
 30
0.0
 11
321.3192899394617
 21
232.476301879883
 31
0.0
  0
LINE
  5
62
330
1F
100
AcDbEntity
  8
APPARENT
100
AcDbLine
 10
320.0574829101562
 20
230.826301879883
 30
0.0
 11
320.0574829101562
 21
232.3144948505775
 31
0.0
  0
LINE
  5
63
330
1F
100
AcDbEntity
  8
APPARENT
100
AcDbLine
 10
321.1574829101563
 20
232.3144948505775
 30
0.0
 11
321.1574829101563
 21
232.476301879883
 31
0.0
  0
LINE
  5
64
330
1F
100
AcDbEntity
  8
APPARENT
100
AcDbLine
 10
225.8956758808508
 20
232.476301879883
 30
0.0
 11
226.0574829101562
 21
232.476301879883
 31
0.0
  0
ARC
  5
65
330
1F
100
AcDbEntity
  8
APPARENT
100
AcDbCircle
 10
226.6074829101562
 20
233.026301879883
 30
0.0
 40
3.838536615931702
100
AcDbArc
 50
0.0
 51
180.0
  0
LINE
  5
66
330
1F
100
AcDbEntity
  8
APPARENT
100
AcDbLine
 10
227.1574829101563
 20
232.476301879883
 30
0.0
 11
227.1574829101563
 21
233.576301879883
 31
0.0
  0
LINE
  5
67
330
1F
100
AcDbEntity
  8
APPARENT
100
AcDbLine
 10
226.0574829101562
 20
233.7381089091884
 30
0.0
 11
226.0574829101562
 21
235.226301879883
 31
0.0
  0
LINE
  5
68
330
1F
100
AcDbEntity
  8
APPARENT
100
AcDbLine
 10
227.1574829101563
 20
230.826301879883
 30
0.0
 11
226.0574829101562
 21
230.826301879883
 31
0.0
  0
LINE
  5
69
330
1F
100
AcDbEntity
  8
APPARENT
100
AcDbLine
 10
228.1631178287666
 20
231.4706669612726
 30
0.0
 11
227.1574829101563
 21
232.3144948505775
 31
0.0
  0
LINE
  5
6A
330
1F
100
AcDbEntity
  8
APPARENT
100
AcDbLine
 10
227.1574829101563
 20
232.476301879883
 30
0.0
 11
226.0574829101562
 21
232.476301879883
 31
0.0
  0
LINE
  5
6B
330
1F
100
AcDbEntity
  8
APPARENT
100
AcDbLine
 10
228.8074829101562
 20
233.026301879883
 30
0.0
 11
228.8074829101562
 21
232.476301879883
 31
0.0
  0
LINE
  5
6C
330
1F
100
AcDbEntity
  8
APPARENT
100
AcDbLine
 10
227.1574829101563
 20
233.7381089091884
 30
0.0
 11
228.1631178287666
 21
234.5819367984934
 31
0.0
  0
LINE
  5
6D
330
1F
100
AcDbEntity
  8
APPARENT
100
AcDbLine
 10
227.3192899394617
 20
233.576301879883
 30
0.0
 11
228.8074829101562
 21
233.576301879883
 31
0.0
  0
LINE
  5
6E
330
1F
100
AcDbEntity
  8
APPARENT
100
AcDbLine
 10
225.8956758808508
 20
233.576301879883
 30
0.0
 11
225.0518479915459
 21
234.5819367984934
 31
0.0
  0
LINE
  5
6F
330
1F
100
AcDbEntity
  8
APPARENT
100
AcDbLine
 10
224.4074829101563
 20
232.476301879883
 30
0.0
 11
224.4074829101563
 21
233.026301879883
 31
0.0
  0
LINE
  5
70
330
1F
100
AcDbEntity
  8
APPARENT
100
AcDbLine
 10
227.1574829101563
 20
232.476301879883
 30
0.0
 11
227.3192899394617
 21
232.476301879883
 31
0.0
  0
LINE
  5
71
330
1F
100
AcDbEntity
  8
APPARENT
100
AcDbLine
 10
227.3192899394617
 20
233.576301879883
 30
0.0
 11
227.1574829101563
 21
233.576301879883
 31
0.0
  0
LINE
  5
72
330
1F
100
AcDbEntity
  8
APPARENT
100
AcDbLine
 10
225.0518479915459
 20
231.4706669612726
 30
0.0
 11
225.8956758808508
 21
232.476301879883
 31
0.0
  0
LINE
  5
73
330
1F
100
AcDbEntity
  8
APPARENT
100
AcDbLine
 10
228.8074829101562
 20
233.576301879883
 30
0.0
 11
228.8074829101562
 21
233.026301879883
 31
0.0
  0
LINE
  5
74
330
1F
100
AcDbEntity
  8
APPARENT
100
AcDbLine
 10
226.0574829101562
 20
233.576301879883
 30
0.0
 11
226.0574829101562
 21
232.476301879883
 31
0.0
  0
LINE
  5
75
330
1F
100
AcDbEntity
  8
APPARENT
100
AcDbLine
 10
226.0574829101562
 20
232.3144948505775
 30
0.0
 11
225.0518479915459
 21
231.4706669612726
 31
0.0
  0
LINE
  5
76
330
1F
100
AcDbEntity
  8
APPARENT
100
AcDbLine
 10
226.0574829101562
 20
233.7381089091884
 30
0.0
 11
226.0574829101562
 21
233.576301879883
 31
0.0
  0
ARC
  5
77
330
1F
100
AcDbEntity
  8
APPARENT
100
AcDbCircle
 10
226.6074829101562
 20
233.026301879883
 30
0.0
 40
3.838536615931702
100
AcDbArc
 50
180.0
 51
0.0
  0
LINE
  5
78
330
1F
100
AcDbEntity
  8
APPARENT
100
AcDbLine
 10
227.1574829101563
 20
235.226301879883
 30
0.0
 11
227.1574829101563
 21
233.7381089091884
 31
0.0
  0
LINE
  5
79
330
1F
100
AcDbEntity
  8
APPARENT
100
AcDbLine
 10
225.8956758808508
 20
232.476301879883
 30
0.0
 11
224.4074829101563
 21
232.476301879883
 31
0.0
  0
LINE
  5
7A
330
1F
100
AcDbEntity
  8
APPARENT
100
AcDbLine
 10
224.4074829101563
 20
233.026301879883
 30
0.0
 11
224.4074829101563
 21
233.576301879883
 31
0.0
  0
LINE
  5
7B
330
1F
100
AcDbEntity
  8
APPARENT
100
AcDbLine
 10
227.1574829101563
 20
233.576301879883
 30
0.0
 11
227.1574829101563
 21
233.7381089091884
 31
0.0
  0
LINE
  5
7C
330
1F
100
AcDbEntity
  8
APPARENT
100
AcDbLine
 10
227.1574829101563
 20
232.3144948505775
 30
0.0
 11
227.1574829101563
 21
230.826301879883
 31
0.0
  0
LINE
  5
7D
330
1F
100
AcDbEntity
  8
APPARENT
100
AcDbLine
 10
224.4074829101563
 20
233.576301879883
 30
0.0
 11
225.8956758808508
 21
233.576301879883
 31
0.0
  0
LINE
  5
7E
330
1F
100
AcDbEntity
  8
APPARENT
100
AcDbLine
 10
226.0574829101562
 20
235.226301879883
 30
0.0
 11
227.1574829101563
 21
235.226301879883
 31
0.0
  0
LINE
  5
7F
330
1F
100
AcDbEntity
  8
APPARENT
100
AcDbLine
 10
228.1631178287666
 20
234.5819367984934
 30
0.0
 11
227.3192899394617
 21
233.576301879883
 31
0.0
  0
LINE
  5
80
330
1F
100
AcDbEntity
  8
APPARENT
100
AcDbLine
 10
225.0518479915459
 20
234.5819367984934
 30
0.0
 11
226.0574829101562
 21
233.7381089091884
 31
0.0
  0
LINE
  5
81
330
1F
100
AcDbEntity
  8
APPARENT
100
AcDbLine
 10
226.0574829101562
 20
232.476301879883
 30
0.0
 11
226.0574829101562
 21
232.3144948505775
 31
0.0
  0
LINE
  5
82
330
1F
100
AcDbEntity
  8
APPARENT
100
AcDbLine
 10
227.1574829101563
 20
233.576301879883
 30
0.0
 11
226.0574829101562
 21
233.576301879883
 31
0.0
  0
LINE
  5
83
330
1F
100
AcDbEntity
  8
APPARENT
100
AcDbLine
 10
227.3192899394617
 20
232.476301879883
 30
0.0
 11
228.1631178287666
 21
231.4706669612726
 31
0.0
  0
LINE
  5
84
330
1F
100
AcDbEntity
  8
APPARENT
100
AcDbLine
 10
226.0574829101562
 20
233.576301879883
 30
0.0
 11
225.8956758808508
 21
233.576301879883
 31
0.0
  0
LINE
  5
85
330
1F
100
AcDbEntity
  8
APPARENT
100
AcDbLine
 10
228.8074829101562
 20
232.476301879883
 30
0.0
 11
227.3192899394617
 21
232.476301879883
 31
0.0
  0
LINE
  5
86
330
1F
100
AcDbEntity
  8
APPARENT
100
AcDbLine
 10
226.0574829101562
 20
230.826301879883
 30
0.0
 11
226.0574829101562
 21
232.3144948505775
 31
0.0
  0
LINE
  5
87
330
1F
100
AcDbEntity
  8
APPARENT
100
AcDbLine
 10
227.1574829101563
 20
232.3144948505775
 30
0.0
 11
227.1574829101563
 21
232.476301879883
 31
0.0
  0
LINE
  5
88
330
1F
100
AcDbEntity
  8
APPARENT
100
AcDbLine
 10
322.8574529101563
 20
204.5063018798828
 30
0.0
 11
322.3574829101562
 21
204.5063018798828
 31
0.0
  0
LINE
  5
89
330
1F
100
AcDbEntity
  8
APPARENT
100
AcDbLine
 10
322.3574529101562
 20
201.8385061667538
 30
0.0
 11
322.3574529101562
 21
200.526301879883
 31
0.0
  0
ARC
  5
8A
330
1F
100
AcDbEntity
  8
APPARENT
100
AcDbCircle
 10
326.8574829101562
 20
237.5063018798828
 30
0.0
 40
0.5
100
AcDbArc
 50
0.0
 51
90.0
  0
LINE
  5
8B
330
1F
100
AcDbEntity
  8
APPARENT
100
AcDbLine
 10
224.8574829101562
 20
204.5063018798828
 30
0.0
 11
224.3575129101563
 21
204.5063018798828
 31
0.0
  0
LINE
  5
8C
330
1F
100
AcDbEntity
  8
APPARENT
100
AcDbLine
 10
322.3574529101563
 20
205.5063018798828
 30
0.0
 11
322.8574529101563
 21
205.5063018798828
 31
0.0
  0
LINE
  5
8D
330
1F
100
AcDbEntity
  8
APPARENT
100
AcDbLine
 10
229.8574529101562
 20
203.3572352152044
 30
0.0
 11
229.8574529101562
 21
204.5063018798828
 31
0.0
  0
LINE
  5
8E
330
1F
100
AcDbEntity
  8
APPARENT
100
AcDbLine
 10
322.3574529101563
 20
204.5063018798828
 30
0.0
 11
322.3574529101563
 21
205.5063018798828
 31
0.0
  0
LINE
  5
8F
330
1F
100
AcDbEntity
  8
APPARENT
100
AcDbLine
 10
317.3574829101562
 20
198.0063018798828
 30
0.0
 11
229.8574829101562
 21
198.0063018798828
 31
0.0
  0
LINE
  5
90
330
1F
100
AcDbEntity
  8
APPARENT
100
AcDbLine
 10
224.8575129101563
 20
202.2215283883133
 30
0.0
 11
224.8575129101563
 21
203.3572352152044
 31
0.0
  0
LINE
  5
91
330
1F
100
AcDbEntity
  8
APPARENT
100
AcDbLine
 10
229.8574529101562
 20
201.8385061667538
 30
0.0
 11
229.8574529101562
 21
200.526301879883
 31
0.0
  0
LINE
  5
92
330
1F
100
AcDbEntity
  8
APPARENT
100
AcDbLine
 10
322.8574529101563
 20
205.5063018798828
 30
0.0
 11
322.8574529101563
 21
204.5063018798828
 31
0.0
  0
LINE
  5
93
330
1F
100
AcDbEntity
  8
APPARENT
100
AcDbLine
 10
229.8574829101562
 20
198.0063018798828
 30
0.0
 11
229.8574829101562
 21
204.5063018798828
 31
0.0
  0
LINE
  5
94
330
1F
100
AcDbEntity
  8
APPARENT
100
AcDbLine
 10
326.8574829101562
 20
198.0063018798828
 30
0.0
 11
322.3574829101562
 21
198.0063018798828
 31
0.0
  0
LINE
  5
95
330
1F
100
AcDbEntity
  8
APPARENT
100
AcDbLine
 10
317.3575129101562
 20
201.8385061667538
 30
0.0
 11
317.3575129101562
 21
202.2215283883133
 31
0.0
  0
LINE
  5
96
330
1F
100
AcDbEntity
  8
APPARENT
100
AcDbLine
 10
322.3574829101562
 20
198.0063018798828
 30
0.0
 11
322.3574829101562
 21
204.5063018798828
 31
0.0
  0
LINE
  5
97
330
1F
100
AcDbEntity
  8
APPARENT
100
AcDbLine
 10
317.3574829101562
 20
204.5063018798828
 30
0.0
 11
317.3574829101562
 21
198.0063018798828
 31
0.0
  0
LINE
  5
98
330
1F
100
AcDbEntity
  8
APPARENT
100
AcDbLine
 10
224.8575129101563
 20
205.5063018798828
 30
0.0
 11
224.8575129101563
 21
204.5063018798828
 31
0.0
  0
LINE
  5
99
330
1F
100
AcDbEntity
  8
APPARENT
100
AcDbLine
 10
224.8575129101562
 20
200.526301879883
 30
0.0
 11
229.8574529101562
 21
200.526301879883
 31
0.0
  0
LINE
  5
9A
330
1F
100
AcDbEntity
  8
APPARENT
100
AcDbLine
 10
224.3575129101563
 20
204.5063018798828
 30
0.0
 11
224.3575129101563
 21
205.5063018798828
 31
0.0
  0
LINE
  5
9B
330
1F
100
AcDbEntity
  8
APPARENT
100
AcDbLine
 10
322.3574529101563
 20
203.3572352152044
 30
0.0
 11
322.3574529101562
 21
202.2215283883133
 31
0.0
  0
LINE
  5
9C
330
1F
100
AcDbEntity
  8
APPARENT
100
AcDbLine
 10
316.8575129101563
 20
204.5063018798828
 30
0.0
 11
316.8575129101563
 21
205.5063018798828
 31
0.0
  0
LINE
  5
9D
330
1F
100
AcDbEntity
  8
APPARENT
100
AcDbLine
 10
317.3575129101562
 20
204.5063018798828
 30
0.0
 11
317.3575129101562
 21
203.3572352152044
 31
0.0
  0
LINE
  5
9E
330
1F
100
AcDbEntity
  8
APPARENT
100
AcDbLine
 10
224.8575129101562
 20
200.526301879883
 30
0.0
 11
224.8575129101562
 21
201.8385061667538
 31
0.0
  0
LINE
  5
9F
330
1F
100
AcDbEntity
  8
APPARENT
100
AcDbLine
 10
322.3574529101562
 20
203.3572352152044
 30
0.0
 11
322.3574529101562
 21
204.5063018798828
 31
0.0
  0
LINE
  5
A0
330
1F
100
AcDbEntity
  8
APPARENT
100
AcDbLine
 10
224.8574829101562
 20
198.0063018798828
 30
0.0
 11
220.3574829101562
 21
198.0063018798828
 31
0.0
  0
LINE
  5
A1
330
1F
100
AcDbEntity
  8
APPARENT
100
AcDbLine
 10
229.8574529101563
 20
203.3572352152044
 30
0.0
 11
229.8574529101562
 21
202.2215283883133
 31
0.0
  0
LINE
  5
A2
330
1F
100
AcDbEntity
  8
APPARENT
100
AcDbLine
 10
229.8574529101563
 20
205.5063018798828
 30
0.0
 11
230.3574529101563
 21
205.5063018798828
 31
0.0
  0
LINE
  5
A3
330
1F
100
AcDbEntity
  8
APPARENT
100
AcDbLine
 10
224.8575129101563
 20
201.8385061667538
 30
0.0
 11
224.8575129101563
 21
202.2215283883133
 31
0.0
  0
LINE
  5
A4
330
1F
100
AcDbEntity
  8
APPARENT
100
AcDbLine
 10
230.3574529101563
 20
204.5063018798828
 30
0.0
 11
229.8574829101562
 21
204.5063018798828
 31
0.0
  0
LINE
  5
A5
330
1F
100
AcDbEntity
  8
APPARENT
100
AcDbLine
 10
229.8574529101562
 20
202.2215283883133
 30
0.0
 11
229.8574529101562
 21
201.8385061667538
 31
0.0
  0
LINE
  5
A6
330
1F
100
AcDbEntity
  8
APPARENT
100
AcDbLine
 10
317.3575129101562
 20
200.526301879883
 30
0.0
 11
317.3575129101562
 21
201.8385061667538
 31
0.0
  0
ARC
  5
A7
330
1F
100
AcDbEntity
  8
APPARENT
100
AcDbCircle
 10
326.8574829101562
 20
198.5063018798828
 30
0.0
 40
0.5
100
AcDbArc
 50
270.0
 51
0.0
  0
LINE
  5
A8
330
1F
100
AcDbEntity
  8
APPARENT
100
AcDbLine
 10
317.3574829101562
 20
204.5063018798828
 30
0.0
 11
316.8575129101563
 21
204.5063018798828
 31
0.0
  0
LINE
  5
A9
330
1F
100
AcDbEntity
  8
APPARENT
100
AcDbLine
 10
229.8574529101563
 20
204.5063018798828
 30
0.0
 11
229.8574529101563
 21
205.5063018798828
 31
0.0
  0
LINE
  5
AA
330
1F
100
AcDbEntity
  8
APPARENT
100
AcDbLine
 10
317.3575129101562
 20
200.526301879883
 30
0.0
 11
322.3574529101562
 21
200.526301879883
 31
0.0
  0
ARC
  5
AB
330
1F
100
AcDbEntity
  8
APPARENT
100
AcDbCircle
 10
220.3574829101562
 20
198.5063018798828
 30
0.0
 40
0.5
100
AcDbArc
 50
180.0
 51
270.0
  0
LINE
  5
AC
330
1F
100
AcDbEntity
  8
APPARENT
100
AcDbLine
 10
224.3575129101563
 20
205.5063018798828
 30
0.0
 11
224.8575129101563
 21
205.5063018798828
 31
0.0
  0
LINE
  5
AD
330
1F
100
AcDbEntity
  8
APPARENT
100
AcDbLine
 10
224.8575129101563
 20
204.5063018798828
 30
0.0
 11
224.8575129101563
 21
203.3572352152044
 31
0.0
  0
LINE
  5
AE
330
1F
100
AcDbEntity
  8
APPARENT
100
AcDbLine
 10
230.3574529101563
 20
205.5063018798828
 30
0.0
 11
230.3574529101563
 21
204.5063018798828
 31
0.0
  0
LINE
  5
AF
330
1F
100
AcDbEntity
  8
APPARENT
100
AcDbLine
 10
327.3574829101562
 20
237.5063018798828
 30
0.0
 11
327.3574829101562
 21
198.5063018798828
 31
0.0
  0
ARC
  5
B0
330
1F
100
AcDbEntity
  8
APPARENT
100
AcDbCircle
 10
220.3574829101562
 20
237.5063018798823
 30
0.0
 40
0.4999999999999716
100
AcDbArc
 50
90.00000000003583
 51
180.0
  0
LINE
  5
B1
330
1F
100
AcDbEntity
  8
APPARENT
100
AcDbLine
 10
224.8574829101562
 20
204.5063018798828
 30
0.0
 11
224.8574829101562
 21
198.0063018798828
 31
0.0
  0
LINE
  5
B2
330
1F
100
AcDbEntity
  8
APPARENT
100
AcDbLine
 10
317.3575129101562
 20
202.2215283883133
 30
0.0
 11
317.3575129101562
 21
203.3572352152044
 31
0.0
  0
LINE
  5
B3
330
1F
100
AcDbEntity
  8
APPARENT
100
AcDbLine
 10
316.8575129101563
 20
205.5063018798828
 30
0.0
 11
317.3575129101562
 21
205.5063018798828
 31
0.0
  0
LINE
  5
B4
330
1F
100
AcDbEntity
  8
APPARENT
100
AcDbLine
 10
322.3574529101562
 20
202.2215283883133
 30
0.0
 11
322.3574529101562
 21
201.8385061667538
 31
0.0
  0
LINE
  5
B5
330
1F
100
AcDbEntity
  8
APPARENT
100
AcDbLine
 10
219.8574829101562
 20
198.5063018798828
 30
0.0
 11
219.8574829101562
 21
237.5063018798823
 31
0.0
  0
LINE
  5
B6
330
1F
100
AcDbEntity
  8
APPARENT
100
AcDbLine
 10
220.3574829101559
 20
238.0063018798823
 30
0.0
 11
326.8574829101562
 21
238.0063018798828
 31
0.0
  0
LINE
  5
B7
330
1F
100
AcDbEntity
  8
APPARENT
100
AcDbLine
 10
317.3575129101562
 20
205.5063018798828
 30
0.0
 11
317.3575129101562
 21
204.5063018798828
 31
0.0
  0
LINE
  5
B9
330
1F
100
AcDbEntity
  8
ARETES TANGENTES
100
AcDbLine
 10
316.6949715736822
 20
233.026301879883
 30
0.0
 11
316.7689462942246
 21
233.026301879883
 31
0.0
  0
LINE
  5
BA
330
1F
100
AcDbEntity
  8
ARETES TANGENTES
100
AcDbLine
 10
324.446019526088
 20
233.026301879883
 30
0.0
 11
322.8074829101562
 21
233.026301879883
 31
0.0
  0
LINE
  5
BB
330
1F
100
AcDbEntity
  8
ARETES TANGENTES
100
AcDbLine
 10
318.4074829101563
 20
233.026301879883
 30
0.0
 11
316.7689462942246
 21
233.026301879883
 31
0.0
  0
LINE
  5
BC
330
1F
100
AcDbEntity
  8
ARETES TANGENTES
100
AcDbLine
 10
324.446019526088
 20
233.026301879883
 30
0.0
 11
324.5199942466303
 21
233.026301879883
 31
0.0
  0
LINE
  5
BD
330
1F
100
AcDbEntity
  8
ARETES TANGENTES
100
AcDbLine
 10
222.6949715736822
 20
233.026301879883
 30
0.0
 11
222.7689462942245
 21
233.026301879883
 31
0.0
  0
LINE
  5
BE
330
1F
100
AcDbEntity
  8
ARETES TANGENTES
100
AcDbLine
 10
230.446019526088
 20
233.026301879883
 30
0.0
 11
228.8074829101562
 21
233.026301879883
 31
0.0
  0
LINE
  5
BF
330
1F
100
AcDbEntity
  8
ARETES TANGENTES
100
AcDbLine
 10
224.4074829101563
 20
233.026301879883
 30
0.0
 11
222.7689462942245
 21
233.026301879883
 31
0.0
  0
LINE
  5
C0
330
1F
100
AcDbEntity
  8
ARETES TANGENTES
100
AcDbLine
 10
230.446019526088
 20
233.026301879883
 30
0.0
 11
230.5199942466303
 21
233.026301879883
 31
0.0
  0
LINE
  5
C1
330
1F
100
AcDbEntity
  8
ARETES TANGENTES
100
AcDbLine
 10
317.3575129101562
 20
203.3572352152044
 30
0.0
 11
322.3574529101563
 21
203.3572352152044
 31
0.0
  0
LINE
  5
C2
330
1F
100
AcDbEntity
  8
ARETES TANGENTES
100
AcDbLine
 10
229.8574529101562
 20
202.2215283883133
 30
0.0
 11
224.8575129101563
 21
202.2215283883133
 31
0.0
  0
LINE
  5
C3
330
1F
100
AcDbEntity
  8
ARETES TANGENTES
100
AcDbLine
 10
229.8574529101563
 20
204.5063018798828
 30
0.0
 11
224.8575129101563
 21
204.5063018798828
 31
0.0
  0
LINE
  5
C4
330
1F
100
AcDbEntity
  8
ARETES TANGENTES
100
AcDbLine
 10
317.3575129101562
 20
201.8385061667538
 30
0.0
 11
322.3574529101562
 21
201.8385061667538
 31
0.0
  0
LINE
  5
C5
330
1F
100
AcDbEntity
  8
ARETES TANGENTES
100
AcDbLine
 10
322.3574529101562
 20
202.2215283883133
 30
0.0
 11
317.3575129101562
 21
202.2215283883133
 31
0.0
  0
LINE
  5
C6
330
1F
100
AcDbEntity
  8
ARETES TANGENTES
100
AcDbLine
 10
224.8575129101563
 20
203.3572352152044
 30
0.0
 11
229.8574529101563
 21
203.3572352152044
 31
0.0
  0
LINE
  5
C7
330
1F
100
AcDbEntity
  8
ARETES TANGENTES
100
AcDbLine
 10
322.3574529101563
 20
204.5063018798828
 30
0.0
 11
317.3575129101562
 21
204.5063018798828
 31
0.0
  0
LINE
  5
C8
330
1F
100
AcDbEntity
  8
ARETES TANGENTES
100
AcDbLine
 10
224.8575129101562
 20
201.8385061667538
 30
0.0
 11
229.8574529101562
 21
201.8385061667538
 31
0.0
  0
ENDSEC
  0
SECTION
  2
OBJECTS
  0
DICTIONARY
  5
C
330
0
100
AcDbDictionary
281
     1
  3
ACAD_GROUP
350
D
  3
ACAD_LAYOUT
350
1A
  3
ACAD_MATERIAL
350
3B
  3
ACAD_MLEADERSTYLE
350
CB
  3
ACAD_MLINESTYLE
350
17
  3
ACAD_PLOTSETTINGS
350
19
  3
ACAD_PLOTSTYLENAME
350
E
  3
ACAD_VISUALSTYLE
350
2A
  3
AcDbVariableDictionary
350
C9
  0
DICTIONARY
  5
D
102
{ACAD_REACTORS
330
C
102
}
330
C
100
AcDbDictionary
281
     1
  0
DICTIONARY
  5
1A
102
{ACAD_REACTORS
330
C
102
}
330
C
100
AcDbDictionary
281
     1
  3
Layout1
350
1E
  3
Layout2
350
26
  3
Model
350
22
  0
DICTIONARY
  5
3B
102
{ACAD_REACTORS
330
C
102
}
330
C
100
AcDbDictionary
281
     1
  3
ByBlock
350
3D
  3
ByLayer
350
3C
  3
Global
350
3E
  0
DICTIONARY
  5
CB
102
{ACAD_REACTORS
330
C
102
}
330
C
100
AcDbDictionary
281
     1
  0
DICTIONARY
  5
17
102
{ACAD_REACTORS
330
C
102
}
330
C
100
AcDbDictionary
281
     1
  3
Standard
350
18
  0
DICTIONARY
  5
19
102
{ACAD_REACTORS
330
C
102
}
330
C
100
AcDbDictionary
281
     1
  0
ACDBDICTIONARYWDFLT
  5
E
102
{ACAD_REACTORS
330
C
102
}
330
C
100
AcDbDictionary
281
     1
  3
Normal
350
F
100
AcDbDictionaryWithDefault
340
F
  0
DICTIONARY
  5
2A
102
{ACAD_REACTORS
330
C
102
}
330
C
100
AcDbDictionary
281
     1
  3
2dWireframe
350
2F
  3
3D Hidden
350
31
  3
3dWireframe
350
30
  3
Basic
350
32
  3
Brighten
350
36
  3
ColorChange
350
3A
  3
Conceptual
350
34
  3
Dim
350
35
  3
Facepattern
350
39
  3
Flat
350
2B
  3
FlatWithEdges
350
2C
  3
Gouraud
350
2D
  3
GouraudWithEdges
350
2E
  3
Linepattern
350
38
  3
Realistic
350
33
  3
Thicken
350
37
  0
DICTIONARY
  5
C9
102
{ACAD_REACTORS
330
C
102
}
330
C
100
AcDbDictionary
281
     1
  3
DIMASSOC
350
CE
  3
HIDETEXT
350
CF
  3
PSOLHEIGHT
350
CD
  3
PSOLWIDTH
350
CC
  0
LAYOUT
  5
1E
102
{ACAD_REACTORS
330
1A
102
}
330
1A
100
AcDbPlotSettings
  1

  2
none_device
  4

  6

 40
0.0
 41
0.0
 42
0.0
 43
0.0
 44
0.0
 45
0.0
 46
0.0
 47
0.0
 48
0.0
 49
0.0
140
0.0
141
0.0
142
1.0
143
1.0
 70
   688
 72
     0
 73
     0
 74
     5
  7

 75
    16
147
1.0
148
0.0
149
0.0
100
AcDbLayout
  1
Layout1
 70
     1
 71
     1
 10
0.0
 20
0.0
 11
420.0
 21
297.0
 12
0.0
 22
0.0
 32
0.0
 14
1.000000000000000E+20
 24
1.000000000000000E+20
 34
1.000000000000000E+20
 15
-1.000000000000000E+20
 25
-1.000000000000000E+20
 35
-1.000000000000000E+20
146
0.0
 13
0.0
 23
0.0
 33
0.0
 16
1.0
 26
0.0
 36
0.0
 17
0.0
 27
1.0
 37
0.0
 76
     0
330
1B
  0
LAYOUT
  5
26
102
{ACAD_REACTORS
330
1A
102
}
330
1A
100
AcDbPlotSettings
  1

  2
none_device
  4

  6

 40
0.0
 41
0.0
 42
0.0
 43
0.0
 44
0.0
 45
0.0
 46
0.0
 47
0.0
 48
0.0
 49
0.0
140
0.0
141
0.0
142
1.0
143
1.0
 70
   688
 72
     0
 73
     0
 74
     5
  7

 75
    16
147
1.0
148
0.0
149
0.0
100
AcDbLayout
  1
Layout2
 70
     1
 71
     2
 10
0.0
 20
0.0
 11
0.0
 21
0.0
 12
0.0
 22
0.0
 32
0.0
 14
0.0
 24
0.0
 34
0.0
 15
0.0
 25
0.0
 35
0.0
146
0.0
 13
0.0
 23
0.0
 33
0.0
 16
1.0
 26
0.0
 36
0.0
 17
0.0
 27
1.0
 37
0.0
 76
     0
330
23
  0
LAYOUT
  5
22
102
{ACAD_REACTORS
330
1A
102
}
330
1A
100
AcDbPlotSettings
  1

  2
none_device
  4

  6

 40
0.0
 41
0.0
 42
0.0
 43
0.0
 44
0.0
 45
0.0
 46
0.0
 47
0.0
 48
0.0
 49
0.0
140
0.0
141
0.0
142
1.0
143
1.0
 70
  1712
 72
     0
 73
     0
 74
     0
  7

 75
     0
147
1.0
148
0.0
149
0.0
100
AcDbLayout
  1
Model
 70
     1
 71
     0
 10
0.0
 20
0.0
 11
420.0
 21
297.0
 12
0.0
 22
0.0
 32
0.0
 14
1.000000000000000E+20
 24
1.000000000000000E+20
 34
1.000000000000000E+20
 15
-1.000000000000000E+20
 25
-1.000000000000000E+20
 35
-1.000000000000000E+20
146
0.0
 13
0.0
 23
0.0
 33
0.0
 16
1.0
 26
0.0
 36
0.0
 17
0.0
 27
1.0
 37
0.0
 76
     0
330
1F
331
29
  0
MATERIAL
  5
3D
102
{ACAD_REACTORS
330
3B
102
}
102
{ACAD_XDICTIONARY
360
F2
102
}
330
3B
100
AcDbMaterial
  1
ByBlock
  0
MATERIAL
  5
3C
102
{ACAD_REACTORS
330
3B
102
}
102
{ACAD_XDICTIONARY
360
F0
102
}
330
3B
100
AcDbMaterial
  1
ByLayer
  0
MATERIAL
  5
3E
102
{ACAD_REACTORS
330
3B
102
}
102
{ACAD_XDICTIONARY
360
F4
102
}
330
3B
100
AcDbMaterial
  1
Global
  0
MLINESTYLE
  5
18
102
{ACAD_REACTORS
330
17
102
}
330
17
100
AcDbMlineStyle
  2
Standard
 70
     0
  3

 62
   256
 51
90.0
 52
90.0
 71
     2
 49
0.5
 62
   256
  6
BYLAYER
 49
-0.5
 62
   256
  6
BYLAYER
  0
ACDBPLACEHOLDER
  5
F
102
{ACAD_REACTORS
330
E
102
}
330
E
  0
VISUALSTYLE
  5
2F
102
{ACAD_REACTORS
330
2A
102
}
102
{ACAD_XDICTIONARY
360
D8
102
}
330
2A
100
AcDbVisualStyle
  2
2dWireframe
 70
     4
 71
     0
 72
     2
 73
     0
 90
        0
 40
-0.6
 41
-30.0
 62
     5
 63
     7
 74
     1
 91
        4
 64
     7
 65
   257
 75
     1
175
     1
 42
1.0
 92
        0
 66
   257
 43
1.0
 76
     1
 77
     6
 78
     2
 67
     7
 79
     5
170
     0
171
     0
290
     0
174
     0
 93
        1
 44
0.0
173
     0
291
     0
 45
0.0
1001
ACAD
1000
AcDbSavedByObjectVersion
1070
     0
  0
VISUALSTYLE
  5
31
102
{ACAD_REACTORS
330
2A
102
}
102
{ACAD_XDICTIONARY
360
DC
102
}
330
2A
100
AcDbVisualStyle
  2
3D Hidden
 70
     6
 71
     1
 72
     2
 73
     2
 90
        0
 40
-0.6
 41
-30.0
 62
     5
 63
     7
 74
     2
 91
        2
 64
     7
 65
   257
 75
     2
175
     1
 42
40.0
 92
        0
 66
   257
 43
1.0
 76
     1
 77
     6
 78
     2
 67
     7
 79
     3
170
     0
171
     0
290
     0
174
     0
 93
        1
 44
0.0
173
     0
291
     0
 45
0.0
1001
ACAD
1000
AcDbSavedByObjectVersion
1070
     0
  0
VISUALSTYLE
  5
30
102
{ACAD_REACTORS
330
2A
102
}
102
{ACAD_XDICTIONARY
360
DA
102
}
330
2A
100
AcDbVisualStyle
  2
3dWireframe
 70
     5
 71
     0
 72
     2
 73
     0
 90
        0
 40
-0.6
 41
-30.0
 62
     5
 63
     7
 74
     1
 91
        4
 64
     7
 65
   257
 75
     1
175
     1
 42
1.0
 92
        0
 66
   257
 43
1.0
 76
     1
 77
     6
 78
     2
 67
     7
 79
     5
170
     0
171
     0
290
     0
174
     0
 93
        1
 44
0.0
173
     0
291
     0
 45
0.0
1001
ACAD
1000
AcDbSavedByObjectVersion
1070
     0
  0
VISUALSTYLE
  5
32
102
{ACAD_REACTORS
330
2A
102
}
102
{ACAD_XDICTIONARY
360
DE
102
}
330
2A
100
AcDbVisualStyle
  2
Basic
 70
     7
 71
     1
 72
     0
 73
     1
 90
        0
 40
-0.6
 41
-30.0
 62
     5
 63
     7
 74
     0
 91
        4
 64
     7
 65
   257
 75
     1
175
     1
 42
1.0
 92
        8
 66
     7
 43
1.0
 76
     1
 77
     6
 78
     2
 67
     7
 79
     5
170
     0
171
     0
290
     0
174
     0
 93
        1
 44
0.0
173
     0
291
     1
 45
0.0
1001
ACAD
1000
AcDbSavedByObjectVersion
1070
     0
  0
VISUALSTYLE
  5
36
102
{ACAD_REACTORS
330
2A
102
}
102
{ACAD_XDICTIONARY
360
E6
102
}
330
2A
100
AcDbVisualStyle
  2
Brighten
 70
    12
 71
     2
 72
     2
 73
     0
 90
        0
 40
-0.6
 41
-30.0
 62
     5
 63
     7
 74
     1
 91
        4
 64
     7
 65
   257
 75
     1
175
     1
 42
1.0
 92
        8
 66
     7
 43
1.0
 76
     1
 77
     6
 78
     2
 67
     7
 79
     5
170
     0
171
     0
290
     0
174
     0
 93
        1
 44
50.0
173
     0
291
     1
 45
0.0
1001
ACAD
1000
AcDbSavedByObjectVersion
1070
     0
  0
VISUALSTYLE
  5
3A
102
{ACAD_REACTORS
330
2A
102
}
102
{ACAD_XDICTIONARY
360
EE
102
}
330
2A
100
AcDbVisualStyle
  2
ColorChange
 70
    16
 71
     2
 72
     2
 73
     3
 90
        0
 40
-0.6
 41
-30.0
 62
     5
 63
     8
 74
     1
 91
        4
 64
     7
 65
   257
 75
     1
175
     1
 42
1.0
 92
        8
 66
     8
 43
1.0
 76
     1
 77
     6
 78
     2
 67
     7
 79
     5
170
     0
171
     0
290
     0
174
     0
 93
        1
 44
0.0
173
     0
291
     1
 45
0.0
1001
ACAD
1000
AcDbSavedByObjectVersion
1070
     0
  0
VISUALSTYLE
  5
34
102
{ACAD_REACTORS
330
2A
102
}
102
{ACAD_XDICTIONARY
360
E2
102
}
330
2A
100
AcDbVisualStyle
  2
Conceptual
 70
     9
 71
     3
 72
     2
 73
     0
 90
        0
 40
-0.6
 41
-30.0
 62
     5
 63
     7
 74
     2
 91
        2
 64
     7
 65
   257
 75
     1
175
     1
 42
40.0
 92
        8
 66
     7
 43
1.0
 76
     1
 77
     6
 78
     2
 67
     7
 79
     3
170
     0
171
     0
290
     0
174
     0
 93
        1
 44
0.0
173
     0
291
     0
 45
0.0
1001
ACAD
1000
AcDbSavedByObjectVersion
1070
     0
  0
VISUALSTYLE
  5
35
102
{ACAD_REACTORS
330
2A
102
}
102
{ACAD_XDICTIONARY
360
E4
102
}
330
2A
100
AcDbVisualStyle
  2
Dim
 70
    11
 71
     2
 72
     2
 73
     0
 90
        0
 40
-0.6
 41
-30.0
 62
     5
 63
     7
 74
     1
 91
        4
 64
     7
 65
   257
 75
     1
175
     1
 42
1.0
 92
        8
 66
     7
 43
1.0
 76
     1
 77
     6
 78
     2
 67
     7
 79
     5
170
     0
171
     0
290
     0
174
     0
 93
        1
 44
-50.0
173
     0
291
     1
 45
0.0
1001
ACAD
1000
AcDbSavedByObjectVersion
1070
     0
  0
VISUALSTYLE
  5
39
102
{ACAD_REACTORS
330
2A
102
}
102
{ACAD_XDICTIONARY
360
EC
102
}
330
2A
100
AcDbVisualStyle
  2
Facepattern
 70
    15
 71
     2
 72
     2
 73
     0
 90
        0
 40
-0.6
 41
-30.0
 62
     5
 63
     7
 74
     1
 91
        4
 64
     7
 65
   257
 75
     1
175
     1
 42
1.0
 92
        8
 66
     7
 43
1.0
 76
     1
 77
     6
 78
     2
 67
     7
 79
     5
170
     0
171
     0
290
     0
174
     0
 93
        1
 44
0.0
173
     0
291
     1
 45
0.0
1001
ACAD
1000
AcDbSavedByObjectVersion
1070
     0
  0
VISUALSTYLE
  5
2B
102
{ACAD_REACTORS
330
2A
102
}
102
{ACAD_XDICTIONARY
360
D0
102
}
330
2A
100
AcDbVisualStyle
  2
Flat
 70
     0
 71
     2
 72
     1
 73
     1
 90
        2
 40
-0.6
 41
30.0
 62
     5
 63
     7
 74
     0
 91
        4
 64
     7
 65
   257
 75
     1
175
     1
 42
1.0
 92
        8
 66
     7
 43
1.0
 76
     1
 77
     6
 78
     2
 67
     7
 79
     5
170
     0
171
     0
290
     0
174
     0
 93
       13
 44
0.0
173
     0
291
     1
 45
0.0
1001
ACAD
1000
AcDbSavedByObjectVersion
1070
     0
  0
VISUALSTYLE
  5
2C
102
{ACAD_REACTORS
330
2A
102
}
102
{ACAD_XDICTIONARY
360
D2
102
}
330
2A
100
AcDbVisualStyle
  2
FlatWithEdges
 70
     1
 71
     2
 72
     1
 73
     1
 90
        2
 40
-0.6
 41
30.0
 62
     5
 63
     7
 74
     1
 91
        4
 64
     7
 65
   257
 75
     1
175
     1
 42
1.0
 92
        0
 66
   257
 43
1.0
 76
     1
 77
     6
 78
     2
 67
     7
 79
     5
170
     0
171
     0
290
     0
174
     0
 93
       13
 44
0.0
173
     0
291
     1
 45
0.0
1001
ACAD
1000
AcDbSavedByObjectVersion
1070
     0
  0
VISUALSTYLE
  5
2D
102
{ACAD_REACTORS
330
2A
102
}
102
{ACAD_XDICTIONARY
360
D4
102
}
330
2A
100
AcDbVisualStyle
  2
Gouraud
 70
     2
 71
     2
 72
     2
 73
     1
 90
        2
 40
-0.6
 41
30.0
 62
     5
 63
     7
 74
     0
 91
        4
 64
     7
 65
   257
 75
     1
175
     1
 42
1.0
 92
        0
 66
     7
 43
1.0
 76
     1
 77
     6
 78
     2
 67
     7
 79
     5
170
     0
171
     0
290
     0
174
     0
 93
       13
 44
0.0
173
     0
291
     1
 45
0.0
1001
ACAD
1000
AcDbSavedByObjectVersion
1070
     0
  0
VISUALSTYLE
  5
2E
102
{ACAD_REACTORS
330
2A
102
}
102
{ACAD_XDICTIONARY
360
D6
102
}
330
2A
100
AcDbVisualStyle
  2
GouraudWithEdges
 70
     3
 71
     2
 72
     2
 73
     1
 90
        2
 40
-0.6
 41
30.0
 62
     5
 63
     7
 74
     1
 91
        4
 64
     7
 65
   257
 75
     1
175
     1
 42
1.0
 92
        0
 66
   257
 43
1.0
 76
     1
 77
     6
 78
     2
 67
     7
 79
     5
170
     0
171
     0
290
     0
174
     0
 93
       13
 44
0.0
173
     0
291
     1
 45
0.0
1001
ACAD
1000
AcDbSavedByObjectVersion
1070
     0
  0
VISUALSTYLE
  5
38
102
{ACAD_REACTORS
330
2A
102
}
102
{ACAD_XDICTIONARY
360
EA
102
}
330
2A
100
AcDbVisualStyle
  2
Linepattern
 70
    14
 71
     2
 72
     2
 73
     0
 90
        0
 40
-0.6
 41
-30.0
 62
     5
 63
     7
 74
     1
 91
        4
 64
     7
 65
   257
 75
     7
175
     7
 42
1.0
 92
        8
 66
     7
 43
1.0
 76
     1
 77
     6
 78
     2
 67
     7
 79
     5
170
     0
171
     0
290
     0
174
     0
 93
        1
 44
0.0
173
     0
291
     1
 45
0.0
1001
ACAD
1000
AcDbSavedByObjectVersion
1070
     0
  0
VISUALSTYLE
  5
33
102
{ACAD_REACTORS
330
2A
102
}
102
{ACAD_XDICTIONARY
360
E0
102
}
330
2A
100
AcDbVisualStyle
  2
Realistic
 70
     8
 71
     2
 72
     2
 73
     0
 90
        0
 40
-0.6
 41
-30.0
 62
     5
 63
     7
 74
     1
 91
        0
 64
     7
 65
   257
 75
     1
175
     1
 42
1.0
 92
        8
 66
     8
 43
1.0
 76
     1
 77
     6
 78
     2
 67
     7
 79
     5
170
     0
171
     0
290
     0
174
     0
 93
       13
 44
0.0
173
     0
291
     0
 45
0.0
1001
ACAD
1000
AcDbSavedByObjectVersion
1070
     0
  0
VISUALSTYLE
  5
37
102
{ACAD_REACTORS
330
2A
102
}
102
{ACAD_XDICTIONARY
360
E8
102
}
330
2A
100
AcDbVisualStyle
  2
Thicken
 70
    13
 71
     2
 72
     2
 73
     0
 90
        0
 40
-0.6
 41
-30.0
 62
     5
 63
     7
 74
     1
 91
        4
 64
     7
 65
   257
 75
     1
175
     1
 42
1.0
 92
       12
 66
     7
 43
1.0
 76
     1
 77
     6
 78
     2
 67
     7
 79
     5
170
     0
171
     0
290
     0
174
     0
 93
        1
 44
0.0
173
     0
291
     1
 45
0.0
1001
ACAD
1000
AcDbSavedByObjectVersion
1070
     0
  0
DICTIONARYVAR
  5
CE
102
{ACAD_REACTORS
330
C9
102
}
330
C9
100
DictionaryVariables
280
     0
  1
2
  0
DICTIONARYVAR
  5
CF
102
{ACAD_REACTORS
330
C9
102
}
330
C9
100
DictionaryVariables
280
     0
  1
1
  0
DICTIONARYVAR
  5
CD
102
{ACAD_REACTORS
330
C9
102
}
330
C9
100
DictionaryVariables
280
     0
  1
80.000000
  0
DICTIONARYVAR
  5
CC
102
{ACAD_REACTORS
330
C9
102
}
330
C9
100
DictionaryVariables
280
     0
  1
5.000000
  0
DICTIONARY
  5
F2
330
3D
100
AcDbDictionary
280
     1
281
     1
  3
ACAD_XREC_ROUNDTRIP
360
F3
  0
DICTIONARY
  5
F0
330
3C
100
AcDbDictionary
280
     1
281
     1
  3
ACAD_XREC_ROUNDTRIP
360
F1
  0
DICTIONARY
  5
F4
330
3E
100
AcDbDictionary
280
     1
281
     1
  3
ACAD_XREC_ROUNDTRIP
360
F5
  0
DICTIONARY
  5
D8
330
2F
100
AcDbDictionary
280
     1
281
     1
  3
ACAD_XREC_ROUNDTRIP
360
D9
  0
DICTIONARY
  5
DC
330
31
100
AcDbDictionary
280
     1
281
     1
  3
ACAD_XREC_ROUNDTRIP
360
DD
  0
DICTIONARY
  5
DA
330
30
100
AcDbDictionary
280
     1
281
     1
  3
ACAD_XREC_ROUNDTRIP
360
DB
  0
DICTIONARY
  5
DE
330
32
100
AcDbDictionary
280
     1
281
     1
  3
ACAD_XREC_ROUNDTRIP
360
DF
  0
DICTIONARY
  5
E6
330
36
100
AcDbDictionary
280
     1
281
     1
  3
ACAD_XREC_ROUNDTRIP
360
E7
  0
DICTIONARY
  5
EE
330
3A
100
AcDbDictionary
280
     1
281
     1
  3
ACAD_XREC_ROUNDTRIP
360
EF
  0
DICTIONARY
  5
E2
330
34
100
AcDbDictionary
280
     1
281
     1
  3
ACAD_XREC_ROUNDTRIP
360
E3
  0
DICTIONARY
  5
E4
330
35
100
AcDbDictionary
280
     1
281
     1
  3
ACAD_XREC_ROUNDTRIP
360
E5
  0
DICTIONARY
  5
EC
330
39
100
AcDbDictionary
280
     1
281
     1
  3
ACAD_XREC_ROUNDTRIP
360
ED
  0
DICTIONARY
  5
D0
330
2B
100
AcDbDictionary
280
     1
281
     1
  3
ACAD_XREC_ROUNDTRIP
360
D1
  0
DICTIONARY
  5
D2
330
2C
100
AcDbDictionary
280
     1
281
     1
  3
ACAD_XREC_ROUNDTRIP
360
D3
  0
DICTIONARY
  5
D4
330
2D
100
AcDbDictionary
280
     1
281
     1
  3
ACAD_XREC_ROUNDTRIP
360
D5
  0
DICTIONARY
  5
D6
330
2E
100
AcDbDictionary
280
     1
281
     1
  3
ACAD_XREC_ROUNDTRIP
360
D7
  0
DICTIONARY
  5
EA
330
38
100
AcDbDictionary
280
     1
281
     1
  3
ACAD_XREC_ROUNDTRIP
360
EB
  0
DICTIONARY
  5
E0
330
33
100
AcDbDictionary
280
     1
281
     1
  3
ACAD_XREC_ROUNDTRIP
360
E1
  0
DICTIONARY
  5
E8
330
37
100
AcDbDictionary
280
     1
281
     1
  3
ACAD_XREC_ROUNDTRIP
360
E9
  0
XRECORD
  5
F3
102
{ACAD_REACTORS
330
F2
102
}
330
F2
100
AcDbXrecord
280
     1
102
MATERIAL
148
0.0
149
0.0
149
0.0
 93
        0
 94
      127
282
     0
 72
     1
 77
     1
171
     1
175
     1
179
     1
273
     0
  0
XRECORD
  5
F1
102
{ACAD_REACTORS
330
F0
102
}
330
F0
100
AcDbXrecord
280
     1
102
MATERIAL
148
0.0
149
0.0
149
0.0
 93
        0
 94
      127
282
     0
 72
     1
 77
     1
171
     1
175
     1
179
     1
273
     0
  0
XRECORD
  5
F5
102
{ACAD_REACTORS
330
F4
102
}
330
F4
100
AcDbXrecord
280
     1
102
MATERIAL
148
0.0
149
0.0
149
0.0
 93
        0
 94
      127
282
     0
 72
     1
 77
     1
171
     1
175
     1
179
     1
273
     0
  0
XRECORD
  5
D9
102
{ACAD_REACTORS
330
D8
102
}
330
D8
100
AcDbXrecord
280
     1
102
RTVSPropertyOp0
 70
     1
102
RTVSPropertyOp1
 70
     1
102
RTVSPropertyOp2
 70
     1
102
RTVSPropertyOp3
 70
     1
102
RTVSPropertyOp4
 70
     1
102
RTVSPropertyOp5
 70
     1
102
RTVSPropertyOp6
 70
     1
102
RTVSPropertyOp7
 70
     1
102
RTVSPropertyOp8
 70
     1
102
RTVSPropertyOp9
 70
     1
102
RTVSPropertyOp10
 70
     1
102
RTVSPropertyOp11
 70
     1
102
RTVSPropertyOp12
 70
     1
102
RTVSPropertyOp13
 70
     1
102
RTVSPropertyOp14
 70
     1
102
RTVSPropertyOp15
 70
     1
102
RTVSPropertyOp16
 70
     1
102
RTVSPropertyOp17
 70
     1
102
RTVSPropertyOp18
 70
     1
102
RTVSPropertyOp19
 70
     1
102
RTVSPropertyOp20
 70
     1
102
RTVSPropertyOp21
 70
     1
102
RTVSPropertyOp22
 70
     1
102
RTVSPropertyOp23
 70
     1
102
RTVSPropertyOp24
 70
     1
102
RTVSPropertyOp25
 70
     1
102
RTVSPropertyOp26
 70
     1
102
RTVSPropertyOp27
 70
     1
  0
XRECORD
  5
DD
102
{ACAD_REACTORS
330
DC
102
}
330
DC
100
AcDbXrecord
280
     1
102
RTVSPropertyOp0
 70
     1
102
RTVSPropertyOp1
 70
     1
102
RTVSPropertyOp2
 70
     1
102
RTVSPropertyOp3
 70
     1
102
RTVSPropertyOp4
 70
     1
102
RTVSPropertyOp5
 70
     1
102
RTVSPropertyOp6
 70
     1
102
RTVSPropertyOp7
 70
     1
102
RTVSPropertyOp8
 70
     1
102
RTVSPropertyOp9
 70
     1
102
RTVSPropertyOp10
 70
     1
102
RTVSPropertyOp11
 70
     1
102
RTVSPropertyOp12
 70
     1
102
RTVSPropertyOp13
 70
     1
102
RTVSPropertyOp14
 70
     1
102
RTVSPropertyOp15
 70
     1
102
RTVSPropertyOp16
 70
     1
102
RTVSPropertyOp17
 70
     1
102
RTVSPropertyOp18
 70
     1
102
RTVSPropertyOp19
 70
     1
102
RTVSPropertyOp20
 70
     1
102
RTVSPropertyOp21
 70
     1
102
RTVSPropertyOp22
 70
     1
102
RTVSPropertyOp23
 70
     1
102
RTVSPropertyOp24
 70
     1
102
RTVSPropertyOp25
 70
     1
102
RTVSPropertyOp26
 70
     1
102
RTVSPropertyOp27
 70
     1
  0
XRECORD
  5
DB
102
{ACAD_REACTORS
330
DA
102
}
330
DA
100
AcDbXrecord
280
     1
102
RTVSPropertyOp0
 70
     1
102
RTVSPropertyOp1
 70
     1
102
RTVSPropertyOp2
 70
     1
102
RTVSPropertyOp3
 70
     1
102
RTVSPropertyOp4
 70
     1
102
RTVSPropertyOp5
 70
     1
102
RTVSPropertyOp6
 70
     1
102
RTVSPropertyOp7
 70
     1
102
RTVSPropertyOp8
 70
     1
102
RTVSPropertyOp9
 70
     1
102
RTVSPropertyOp10
 70
     1
102
RTVSPropertyOp11
 70
     1
102
RTVSPropertyOp12
 70
     1
102
RTVSPropertyOp13
 70
     1
102
RTVSPropertyOp14
 70
     1
102
RTVSPropertyOp15
 70
     1
102
RTVSPropertyOp16
 70
     1
102
RTVSPropertyOp17
 70
     1
102
RTVSPropertyOp18
 70
     1
102
RTVSPropertyOp19
 70
     1
102
RTVSPropertyOp20
 70
     1
102
RTVSPropertyOp21
 70
     1
102
RTVSPropertyOp22
 70
     1
102
RTVSPropertyOp23
 70
     1
102
RTVSPropertyOp24
 70
     1
102
RTVSPropertyOp25
 70
     1
102
RTVSPropertyOp26
 70
     1
102
RTVSPropertyOp27
 70
     1
  0
XRECORD
  5
DF
102
{ACAD_REACTORS
330
DE
102
}
330
DE
100
AcDbXrecord
280
     1
102
RTVSPropertyOp0
 70
     1
102
RTVSPropertyOp1
 70
     1
102
RTVSPropertyOp2
 70
     1
102
RTVSPropertyOp3
 70
     1
102
RTVSPropertyOp4
 70
     1
102
RTVSPropertyOp5
 70
     1
102
RTVSPropertyOp6
 70
     1
102
RTVSPropertyOp7
 70
     1
102
RTVSPropertyOp8
 70
     1
102
RTVSPropertyOp9
 70
     1
102
RTVSPropertyOp10
 70
     1
102
RTVSPropertyOp11
 70
     1
102
RTVSPropertyOp12
 70
     1
102
RTVSPropertyOp13
 70
     1
102
RTVSPropertyOp14
 70
     1
102
RTVSPropertyOp15
 70
     1
102
RTVSPropertyOp16
 70
     1
102
RTVSPropertyOp17
 70
     1
102
RTVSPropertyOp18
 70
     1
102
RTVSPropertyOp19
 70
     1
102
RTVSPropertyOp20
 70
     1
102
RTVSPropertyOp21
 70
     1
102
RTVSPropertyOp22
 70
     1
102
RTVSPropertyOp23
 70
     1
102
RTVSPropertyOp24
 70
     1
102
RTVSPropertyOp25
 70
     1
102
RTVSPropertyOp26
 70
     1
102
RTVSPropertyOp27
 70
     1
  0
XRECORD
  5
E7
102
{ACAD_REACTORS
330
E6
102
}
330
E6
100
AcDbXrecord
280
     1
102
RTVSPropertyOp0
 70
     1
102
RTVSPropertyOp1
 70
     1
102
RTVSPropertyOp2
 70
     1
102
RTVSPropertyOp3
 70
     1
102
RTVSPropertyOp4
 70
     1
102
RTVSPropertyOp5
 70
     1
102
RTVSPropertyOp6
 70
     1
102
RTVSPropertyOp7
 70
     1
102
RTVSPropertyOp8
 70
     1
102
RTVSPropertyOp9
 70
     1
102
RTVSPropertyOp10
 70
     1
102
RTVSPropertyOp11
 70
     1
102
RTVSPropertyOp12
 70
     1
102
RTVSPropertyOp13
 70
     1
102
RTVSPropertyOp14
 70
     1
102
RTVSPropertyOp15
 70
     1
102
RTVSPropertyOp16
 70
     1
102
RTVSPropertyOp17
 70
     1
102
RTVSPropertyOp18
 70
     1
102
RTVSPropertyOp19
 70
     1
102
RTVSPropertyOp20
 70
     1
102
RTVSPropertyOp21
 70
     1
102
RTVSPropertyOp22
 70
     1
102
RTVSPropertyOp23
 70
     1
102
RTVSPropertyOp24
 70
     1
102
RTVSPropertyOp25
 70
     1
102
RTVSPropertyOp26
 70
     1
102
RTVSPropertyOp27
 70
     1
  0
XRECORD
  5
EF
102
{ACAD_REACTORS
330
EE
102
}
330
EE
100
AcDbXrecord
280
     1
102
RTVSPropertyOp0
 70
     1
102
RTVSPropertyOp1
 70
     1
102
RTVSPropertyOp2
 70
     1
102
RTVSPropertyOp3
 70
     1
102
RTVSPropertyOp4
 70
     1
102
RTVSPropertyOp5
 70
     1
102
RTVSPropertyOp6
 70
     1
102
RTVSPropertyOp7
 70
     1
102
RTVSPropertyOp8
 70
     1
102
RTVSPropertyOp9
 70
     1
102
RTVSPropertyOp10
 70
     1
102
RTVSPropertyOp11
 70
     1
102
RTVSPropertyOp12
 70
     1
102
RTVSPropertyOp13
 70
     1
102
RTVSPropertyOp14
 70
     1
102
RTVSPropertyOp15
 70
     1
102
RTVSPropertyOp16
 70
     1
102
RTVSPropertyOp17
 70
     1
102
RTVSPropertyOp18
 70
     1
102
RTVSPropertyOp19
 70
     1
102
RTVSPropertyOp20
 70
     1
102
RTVSPropertyOp21
 70
     1
102
RTVSPropertyOp22
 70
     1
102
RTVSPropertyOp23
 70
     1
102
RTVSPropertyOp24
 70
     1
102
RTVSPropertyOp25
 70
     1
102
RTVSPropertyOp26
 70
     1
102
RTVSPropertyOp27
 70
     1
  0
XRECORD
  5
E3
102
{ACAD_REACTORS
330
E2
102
}
330
E2
100
AcDbXrecord
280
     1
102
RTVSPropertyOp0
 70
     1
102
RTVSPropertyOp1
 70
     1
102
RTVSPropertyOp2
 70
     1
102
RTVSPropertyOp3
 70
     1
102
RTVSPropertyOp4
 70
     1
102
RTVSPropertyOp5
 70
     1
102
RTVSPropertyOp6
 70
     1
102
RTVSPropertyOp7
 70
     1
102
RTVSPropertyOp8
 70
     1
102
RTVSPropertyOp9
 70
     1
102
RTVSPropertyOp10
 70
     1
102
RTVSPropertyOp11
 70
     1
102
RTVSPropertyOp12
 70
     1
102
RTVSPropertyOp13
 70
     1
102
RTVSPropertyOp14
 70
     1
102
RTVSPropertyOp15
 70
     1
102
RTVSPropertyOp16
 70
     1
102
RTVSPropertyOp17
 70
     1
102
RTVSPropertyOp18
 70
     1
102
RTVSPropertyOp19
 70
     1
102
RTVSPropertyOp20
 70
     1
102
RTVSPropertyOp21
 70
     1
102
RTVSPropertyOp22
 70
     1
102
RTVSPropertyOp23
 70
     1
102
RTVSPropertyOp24
 70
     1
102
RTVSPropertyOp25
 70
     1
102
RTVSPropertyOp26
 70
     1
102
RTVSPropertyOp27
 70
     1
  0
XRECORD
  5
E5
102
{ACAD_REACTORS
330
E4
102
}
330
E4
100
AcDbXrecord
280
     1
102
RTVSPropertyOp0
 70
     1
102
RTVSPropertyOp1
 70
     1
102
RTVSPropertyOp2
 70
     1
102
RTVSPropertyOp3
 70
     1
102
RTVSPropertyOp4
 70
     1
102
RTVSPropertyOp5
 70
     1
102
RTVSPropertyOp6
 70
     1
102
RTVSPropertyOp7
 70
     1
102
RTVSPropertyOp8
 70
     1
102
RTVSPropertyOp9
 70
     1
102
RTVSPropertyOp10
 70
     1
102
RTVSPropertyOp11
 70
     1
102
RTVSPropertyOp12
 70
     1
102
RTVSPropertyOp13
 70
     1
102
RTVSPropertyOp14
 70
     1
102
RTVSPropertyOp15
 70
     1
102
RTVSPropertyOp16
 70
     1
102
RTVSPropertyOp17
 70
     1
102
RTVSPropertyOp18
 70
     1
102
RTVSPropertyOp19
 70
     1
102
RTVSPropertyOp20
 70
     1
102
RTVSPropertyOp21
 70
     1
102
RTVSPropertyOp22
 70
     1
102
RTVSPropertyOp23
 70
     1
102
RTVSPropertyOp24
 70
     1
102
RTVSPropertyOp25
 70
     1
102
RTVSPropertyOp26
 70
     1
102
RTVSPropertyOp27
 70
     1
  0
XRECORD
  5
ED
102
{ACAD_REACTORS
330
EC
102
}
330
EC
100
AcDbXrecord
280
     1
102
RTVSPropertyOp0
 70
     1
102
RTVSPropertyOp1
 70
     1
102
RTVSPropertyOp2
 70
     1
102
RTVSPropertyOp3
 70
     1
102
RTVSPropertyOp4
 70
     1
102
RTVSPropertyOp5
 70
     1
102
RTVSPropertyOp6
 70
     1
102
RTVSPropertyOp7
 70
     1
102
RTVSPropertyOp8
 70
     1
102
RTVSPropertyOp9
 70
     1
102
RTVSPropertyOp10
 70
     1
102
RTVSPropertyOp11
 70
     1
102
RTVSPropertyOp12
 70
     1
102
RTVSPropertyOp13
 70
     1
102
RTVSPropertyOp14
 70
     1
102
RTVSPropertyOp15
 70
     1
102
RTVSPropertyOp16
 70
     1
102
RTVSPropertyOp17
 70
     1
102
RTVSPropertyOp18
 70
     1
102
RTVSPropertyOp19
 70
     1
102
RTVSPropertyOp20
 70
     1
102
RTVSPropertyOp21
 70
     1
102
RTVSPropertyOp22
 70
     1
102
RTVSPropertyOp23
 70
     1
102
RTVSPropertyOp24
 70
     1
102
RTVSPropertyOp25
 70
     1
102
RTVSPropertyOp26
 70
     1
102
RTVSPropertyOp27
 70
     1
  0
XRECORD
  5
D1
102
{ACAD_REACTORS
330
D0
102
}
330
D0
100
AcDbXrecord
280
     1
102
RTVSPropertyOp0
 70
     1
102
RTVSPropertyOp1
 70
     1
102
RTVSPropertyOp2
 70
     1
102
RTVSPropertyOp3
 70
     1
102
RTVSPropertyOp4
 70
     1
102
RTVSPropertyOp5
 70
     1
102
RTVSPropertyOp6
 70
     1
102
RTVSPropertyOp7
 70
     1
102
RTVSPropertyOp8
 70
     1
102
RTVSPropertyOp9
 70
     1
102
RTVSPropertyOp10
 70
     1
102
RTVSPropertyOp11
 70
     1
102
RTVSPropertyOp12
 70
     1
102
RTVSPropertyOp13
 70
     1
102
RTVSPropertyOp14
 70
     1
102
RTVSPropertyOp15
 70
     1
102
RTVSPropertyOp16
 70
     1
102
RTVSPropertyOp17
 70
     1
102
RTVSPropertyOp18
 70
     1
102
RTVSPropertyOp19
 70
     1
102
RTVSPropertyOp20
 70
     1
102
RTVSPropertyOp21
 70
     1
102
RTVSPropertyOp22
 70
     1
102
RTVSPropertyOp23
 70
     1
102
RTVSPropertyOp24
 70
     1
102
RTVSPropertyOp25
 70
     1
102
RTVSPropertyOp26
 70
     1
102
RTVSPropertyOp27
 70
     1
  0
XRECORD
  5
D3
102
{ACAD_REACTORS
330
D2
102
}
330
D2
100
AcDbXrecord
280
     1
102
RTVSPropertyOp0
 70
     1
102
RTVSPropertyOp1
 70
     1
102
RTVSPropertyOp2
 70
     1
102
RTVSPropertyOp3
 70
     1
102
RTVSPropertyOp4
 70
     1
102
RTVSPropertyOp5
 70
     1
102
RTVSPropertyOp6
 70
     1
102
RTVSPropertyOp7
 70
     1
102
RTVSPropertyOp8
 70
     1
102
RTVSPropertyOp9
 70
     1
102
RTVSPropertyOp10
 70
     1
102
RTVSPropertyOp11
 70
     1
102
RTVSPropertyOp12
 70
     1
102
RTVSPropertyOp13
 70
     1
102
RTVSPropertyOp14
 70
     1
102
RTVSPropertyOp15
 70
     1
102
RTVSPropertyOp16
 70
     1
102
RTVSPropertyOp17
 70
     1
102
RTVSPropertyOp18
 70
     1
102
RTVSPropertyOp19
 70
     1
102
RTVSPropertyOp20
 70
     1
102
RTVSPropertyOp21
 70
     1
102
RTVSPropertyOp22
 70
     1
102
RTVSPropertyOp23
 70
     1
102
RTVSPropertyOp24
 70
     1
102
RTVSPropertyOp25
 70
     1
102
RTVSPropertyOp26
 70
     1
102
RTVSPropertyOp27
 70
     1
  0
XRECORD
  5
D5
102
{ACAD_REACTORS
330
D4
102
}
330
D4
100
AcDbXrecord
280
     1
102
RTVSPropertyOp0
 70
     1
102
RTVSPropertyOp1
 70
     1
102
RTVSPropertyOp2
 70
     1
102
RTVSPropertyOp3
 70
     1
102
RTVSPropertyOp4
 70
     1
102
RTVSPropertyOp5
 70
     1
102
RTVSPropertyOp6
 70
     1
102
RTVSPropertyOp7
 70
     1
102
RTVSPropertyOp8
 70
     1
102
RTVSPropertyOp9
 70
     1
102
RTVSPropertyOp10
 70
     1
102
RTVSPropertyOp11
 70
     1
102
RTVSPropertyOp12
 70
     1
102
RTVSPropertyOp13
 70
     1
102
RTVSPropertyOp14
 70
     1
102
RTVSPropertyOp15
 70
     1
102
RTVSPropertyOp16
 70
     1
102
RTVSPropertyOp17
 70
     1
102
RTVSPropertyOp18
 70
     1
102
RTVSPropertyOp19
 70
     1
102
RTVSPropertyOp20
 70
     1
102
RTVSPropertyOp21
 70
     1
102
RTVSPropertyOp22
 70
     1
102
RTVSPropertyOp23
 70
     1
102
RTVSPropertyOp24
 70
     1
102
RTVSPropertyOp25
 70
     1
102
RTVSPropertyOp26
 70
     1
102
RTVSPropertyOp27
 70
     1
  0
XRECORD
  5
D7
102
{ACAD_REACTORS
330
D6
102
}
330
D6
100
AcDbXrecord
280
     1
102
RTVSPropertyOp0
 70
     1
102
RTVSPropertyOp1
 70
     1
102
RTVSPropertyOp2
 70
     1
102
RTVSPropertyOp3
 70
     1
102
RTVSPropertyOp4
 70
     1
102
RTVSPropertyOp5
 70
     1
102
RTVSPropertyOp6
 70
     1
102
RTVSPropertyOp7
 70
     1
102
RTVSPropertyOp8
 70
     1
102
RTVSPropertyOp9
 70
     1
102
RTVSPropertyOp10
 70
     1
102
RTVSPropertyOp11
 70
     1
102
RTVSPropertyOp12
 70
     1
102
RTVSPropertyOp13
 70
     1
102
RTVSPropertyOp14
 70
     1
102
RTVSPropertyOp15
 70
     1
102
RTVSPropertyOp16
 70
     1
102
RTVSPropertyOp17
 70
     1
102
RTVSPropertyOp18
 70
     1
102
RTVSPropertyOp19
 70
     1
102
RTVSPropertyOp20
 70
     1
102
RTVSPropertyOp21
 70
     1
102
RTVSPropertyOp22
 70
     1
102
RTVSPropertyOp23
 70
     1
102
RTVSPropertyOp24
 70
     1
102
RTVSPropertyOp25
 70
     1
102
RTVSPropertyOp26
 70
     1
102
RTVSPropertyOp27
 70
     1
  0
XRECORD
  5
EB
102
{ACAD_REACTORS
330
EA
102
}
330
EA
100
AcDbXrecord
280
     1
102
RTVSPropertyOp0
 70
     1
102
RTVSPropertyOp1
 70
     1
102
RTVSPropertyOp2
 70
     1
102
RTVSPropertyOp3
 70
     1
102
RTVSPropertyOp4
 70
     1
102
RTVSPropertyOp5
 70
     1
102
RTVSPropertyOp6
 70
     1
102
RTVSPropertyOp7
 70
     1
102
RTVSPropertyOp8
 70
     1
102
RTVSPropertyOp9
 70
     1
102
RTVSPropertyOp10
 70
     1
102
RTVSPropertyOp11
 70
     1
102
RTVSPropertyOp12
 70
     1
102
RTVSPropertyOp13
 70
     1
102
RTVSPropertyOp14
 70
     1
102
RTVSPropertyOp15
 70
     1
102
RTVSPropertyOp16
 70
     1
102
RTVSPropertyOp17
 70
     1
102
RTVSPropertyOp18
 70
     1
102
RTVSPropertyOp19
 70
     1
102
RTVSPropertyOp20
 70
     1
102
RTVSPropertyOp21
 70
     1
102
RTVSPropertyOp22
 70
     1
102
RTVSPropertyOp23
 70
     1
102
RTVSPropertyOp24
 70
     1
102
RTVSPropertyOp25
 70
     1
102
RTVSPropertyOp26
 70
     1
102
RTVSPropertyOp27
 70
     1
  0
XRECORD
  5
E1
102
{ACAD_REACTORS
330
E0
102
}
330
E0
100
AcDbXrecord
280
     1
102
RTVSPropertyOp0
 70
     1
102
RTVSPropertyOp1
 70
     1
102
RTVSPropertyOp2
 70
     1
102
RTVSPropertyOp3
 70
     1
102
RTVSPropertyOp4
 70
     1
102
RTVSPropertyOp5
 70
     1
102
RTVSPropertyOp6
 70
     1
102
RTVSPropertyOp7
 70
     1
102
RTVSPropertyOp8
 70
     1
102
RTVSPropertyOp9
 70
     1
102
RTVSPropertyOp10
 70
     1
102
RTVSPropertyOp11
 70
     1
102
RTVSPropertyOp12
 70
     1
102
RTVSPropertyOp13
 70
     1
102
RTVSPropertyOp14
 70
     1
102
RTVSPropertyOp15
 70
     1
102
RTVSPropertyOp16
 70
     1
102
RTVSPropertyOp17
 70
     1
102
RTVSPropertyOp18
 70
     1
102
RTVSPropertyOp19
 70
     1
102
RTVSPropertyOp20
 70
     1
102
RTVSPropertyOp21
 70
     1
102
RTVSPropertyOp22
 70
     1
102
RTVSPropertyOp23
 70
     1
102
RTVSPropertyOp24
 70
     1
102
RTVSPropertyOp25
 70
     1
102
RTVSPropertyOp26
 70
     1
102
RTVSPropertyOp27
 70
     1
  0
XRECORD
  5
E9
102
{ACAD_REACTORS
330
E8
102
}
330
E8
100
AcDbXrecord
280
     1
102
RTVSPropertyOp0
 70
     1
102
RTVSPropertyOp1
 70
     1
102
RTVSPropertyOp2
 70
     1
102
RTVSPropertyOp3
 70
     1
102
RTVSPropertyOp4
 70
     1
102
RTVSPropertyOp5
 70
     1
102
RTVSPropertyOp6
 70
     1
102
RTVSPropertyOp7
 70
     1
102
RTVSPropertyOp8
 70
     1
102
RTVSPropertyOp9
 70
     1
102
RTVSPropertyOp10
 70
     1
102
RTVSPropertyOp11
 70
     1
102
RTVSPropertyOp12
 70
     1
102
RTVSPropertyOp13
 70
     1
102
RTVSPropertyOp14
 70
     1
102
RTVSPropertyOp15
 70
     1
102
RTVSPropertyOp16
 70
     1
102
RTVSPropertyOp17
 70
     1
102
RTVSPropertyOp18
 70
     1
102
RTVSPropertyOp19
 70
     1
102
RTVSPropertyOp20
 70
     1
102
RTVSPropertyOp21
 70
     1
102
RTVSPropertyOp22
 70
     1
102
RTVSPropertyOp23
 70
     1
102
RTVSPropertyOp24
 70
     1
102
RTVSPropertyOp25
 70
     1
102
RTVSPropertyOp26
 70
     1
102
RTVSPropertyOp27
 70
     1
  0
ENDSEC
  0
EOF
